Oops, an error
Loading. Please wait.

This Must Be My Dream intro tab

version 1
version 1

Intro

2,092 views 21 this week
3 commentsread comments
1 2 3 4 5
x 7
add to favorites
×
Save as Personal and add changes to this tab that will be seen only by you. Learn more ›
×
You can save this tab as Personal to edit and correct it or add notes. All changes will be seen only by you. Learn more »
launch autoscroll
font size
0
reset
how to read this tab
guitar tuner
edit
Autoscroll
slow
fast
+/-
esc
set tempo
stop
Author
Difficulty
intermediate
[Intro, chorus]

(Guitar 1)
e|-----------------------------------------------------------|
B|-----------------------------------------------------------|
G|------------9---------------9------------------------------|
D|--7x7-7-x---7------7x7-7x---7-----7x7-7--------------------|
A|-----------------------------------------------7-7---7-7-9-|
E|-------------------------------------------7h9-------------|

(Guitar 2)
e|-----------------------------------------------------------|
B|-----------------------------------------------------------|
G|-----21-21-18-18-16-16-14-14-16-16-18-18-13-13-14-14-------|
D|-----------------------------------------------------------|
A|-----------------------------------------------------------|
E|-----------------------------------------------------------|

            
            
Suggest correction
Creating personal tab
Creating personal tab
You can edit any tab online and save it as your Personal.

You can edit, replace or remove any tab part or add personal notes – all changes will be seen only by you.

Personal tabs can be accessed anytime from any device, even offline.
Learn more »
comments
print report bad tab
3 comments total.
+2 reply
Spaarven 16 Mar 22, 2016 10:51 AM

hi i think this is the correct intro:

G:-----21-21-18-18-16-16-14-14-16-16-18-18-13-13-14-14

OR if you dont want to reach up to 21st fret you can just substitute 21st fret on G string to 17th fret on b

B------17-17-------------------------------------------


G-------------18-18-16-16-14-14-16-16-18-18-13-13-14-14

0 reply
oursummeranthem 509 Apr 22, 2016 02:31 AM

Do you have the tab for the solo like on your video?

guest
You may want to rate the tab now too:
select rating
Wanna post a correction for this tab? Suggest correction