Oops, an error
Loading. Please wait.

Ugh bass

version 1
version 1

Whole song

Interactive

4,174 views 18 this week
2 commentsread comments
1 2 3 4 5
x 4
add to favorites
×
Save as Personal and add changes to this tab that will be seen only by you. Learn more ›
×
You can save this tab as Personal to edit and correct it or add notes. All changes will be seen only by you. Learn more »
launch autoscroll
font size
0
reset
guitar tuner
edit
Autoscroll
slow
fast
+/-
esc
set tempo
stop
Author
Difficulty
intermediate
-------------------------------------------------------------------------------
                             Ugh - The 1975
-------------------------------------------------------------------------------
Tabbed by: Reuben Pugliese
E-mail: rdcmacp2@yahoo.com

Tuning: Standard (EADG)

{INTRO, VERSE, CHORUS, BRIDGE, and OUTRO times are according to official music video)

Listen to song for timing

[Intro]
(0:07) x1

G|----------------------------------------|-------------------------------------------------|
D|-------------------0-0------------------|----------------------0-0-----------------3--1---|
A|------------------------1--1----1--3----|---------------------------1--1----1--3----------|
E|-1--1------3----------------------------|-1--1---1-1h3----1-------------------------------|

[Verse 1]
(0:18) x4

"Hey boy, stop..."

G|----------------------------------------|-------------------------------------------------|
D|-------------------0-0------------------|----------------------0-0-----------------3--1---|
A|------------------------1--1----1--3----|---------------------------1--1----1--3----------|
E|-1--1------3----------------------------|-1--1---1-1h3----1-------------------------------|

[Chorus 1]
(0:56) x2

"And you're the only thing that's going on in my mind..."

G|----------------------------------------|-------------------------------------------------|
D|-------------------0-0------------------|----------------------0-0-----------------3--1---|
A|------------------------1--1----1--3----|---------------------------1--1----1--3----------|
E|-1--1------3----------------------------|-1--1---1-1h3----1-------------------------------|

[Verse 2]
(1:17) x1

"This conversation's not about reciprocation no more..."

G|----------------------------------------|-------------------------------------------------|
D|-------------------0-0------------------|----------------------0-0-----------------3--1---|
A|------------------------1--1----1--3----|---------------------------1--1----1--3----------|
E|-1--1------3----------------------------|-1--1---1-1h3----1-------------------------------|

[Verse 2]
(1:27) x1

"Me and my things, my car, my living..."

G|----------------------------------------|-------------------------------------------------|
D|-------------------0-0------------------|-------------------------------------------------|
A|------------------------1--1----1--3----|-------------------------------------------------|
E|-1--1------3----------------------------|-1--1---1-1h3------------------------------------|

[Chorus 2]
(1:39) x1 *Although CHORUS 2 starts at 1:37, wait until 1:39 to come in 

"Taking over my life a second time..."

G|----------------------------------------|-------------------------------------------------|
D|----------------------------------------|----------------------0-0-----------------3--1---|
A|------------------------1--1----1--3----|---------------------------1--1----1--3----------|
E|----------------------------------------|-1--1---1-1h3----1-------------------------------|

[Chorus 2]
(1:46) x1

"Well I said I liked it better without my money, I lied..."

G|----------------------------------------|-------------------------------------------------|
D|-------------------0-0------------------|----------------------0-0-----------------3--1---|
A|------------------------1--1----1--3----|---------------------------1--1----1--3----------|
E|-1--1------3----------------------------|-1--1---1-1h3----1-------------------------------|

[Bridge]
(1:56) x1

G|---------------------------------------------|-------------------------------------------------|
D|---------------------------------------------|-------------------------------------------------|
A|-3~~~~~~~~~~~3----------1~~~---1~~~---1p0----|-------------------------------------------------|
E|---------------------------------------------|-4~~~~~~~~~~~4----------3~~~~~~~~~~~3------------|

[Bridge]
(2:05) x1

"Oh, the kick won't last for long..."

G|---------------------------------------------|-------------------------------------------------|
D|---------------------------------------------|-------------------------------------------------|
A|-3~~~~~~~~~~~3----------1~~~---1~~~---1p0----|-------------------------------------------------|
E|---------------------------------------------|-4~~~~~~~~~~~4----------3~~~~~~~~~~~3------------|

[Bridge]
(2:15) x1

"The kick won't last for long..."

G|---------------------------------------------|------------------------------------------------------|
D|---------------------------------------------|---------------------------------------------1--------|
A|-3~~~~~~~~~~~3----------1~~~---1~~~---1p0----|------------------------------------1--3-1h3---3p1----|
E|---------------------------------------------|-4~~~~~~~~~~~4----------3~~~~~~~~~~~------------------|

FINAL CHORUS 
(2:24) x2

"And you're the only thing that's going on in my mind..."

G|----------------------------------------|-------------------------------------------------|
D|-------------------0-0------------------|----------------------0-0-----------------3--1---|
A|------------------------1--1----1--3----|---------------------------1--1----1--3----------|
E|-1--1------3----------------------------|-1--1---1-1h3----1-------------------------------|

[Outro]
(2:45) x2

"I'm not giving it up..."

G|----------------------------------------|-------------------------------------------------|
D|-------------------0-0------------------|----------------------0-0-----------------3--1---|
A|------------------------1--1----1--3----|---------------------------1--1----1--3----------|
E|-1--1------3----------------------------|-1--1---1-1h3----1-------------------------------|

This is my first tab, hope you enjoy it :) 

Feedback is appreciated!


**************************************************

| h  hammer-on
| p  pull-off
| ~  vibrato

**************************************************

            
            
Suggest correction
Creating personal tab
Creating personal tab
You can edit any tab online and save it as your Personal.

You can edit, replace or remove any tab part or add personal notes – all changes will be seen only by you.

Personal tabs can be accessed anytime from any device, even offline.
Learn more »
comments
print report bad tab
2 comments total.
0 reply
mr.ban4545 34 Jan 28, 2016 07:14 AM

G|----------------------------------------|
D|-------------------0-0------------------|
A|------------------------2--2----2--3----|
E|-1--1------3----------------------------|

I think it sounds better like this but not sure

0 reply
JackMills 6,147 Mar 03, 2016 08:13 AM

Most of this is wrong, the key is right I guess but that's about it. Even the little fill in the bridge is off

guest
You may want to rate the tab now too:
select rating
Wanna post a correction for this tab? Suggest correction