Oops, an error
Loading. Please wait.

Ugh bass

version 2
version 2

Whole song

Interactive

3,079 views 30 this week
1 commentread comment
1 2 3 4 5
x 8
add to favorites
×
Save as Personal and add changes to this tab that will be seen only by you. Learn more ›
×
You can save this tab as Personal to edit and correct it or add notes. All changes will be seen only by you. Learn more »
launch autoscroll
font size
0
reset
guitar tuner
edit
Autoscroll
slow
fast
+/-
esc
set tempo
stop
Author
Difficulty
The first version of this tab was really wrong, and it bugged me, so I made it correctly.

Let me know if you want me to do anymore 1975 :]

  Intro
G|-----------------------------------------------------------------|
D|-------------------------------0-1-------------------------------|
A|-----------------------------------2---2-----2---3---------------|
E|-1---1---------3-------------------------------------------------|
   1 e + a 2 e + a 3 e + a 4 e + a 1 e + a 2 e + a 3 e + a 4 e + a

G|-----------------------------------------------------------------|
D|-------------------------3-----0-1---------------------3---------|
A|-----------------------------------2---2-----2---3---------6-\---|
E|-1---1-----1-1-3-------------------------------------------------|
   1 e + a 2 e + a 3 e + a 4 e + a 1 e + a 2 e + a 3 e + a 4 e + a

  Verse x4
G|------------------------------------------------------------------|
D|o-------------------------------0-1-------------------------------|
A|o-----------------------------------2---2-----2---3---------------|
E|--1---1---------3-------------------------------------------------|
    1 e + a 2 e + a 3 e + a 4 e + a 1 e + a 2 e + a 3 e + a 4 e + a

G|------------------------------------------------------------------|
D|-------------------------3-----0-1---------------------3---------o|
A|-----------------------------------2---2-----2---3---------6-\---o|
E|-1---1-----1-1-3--------------------------------------------------|
   1 e + a 2 e + a 3 e + a 4 e + a 1 e + a 2 e + a 3 e + a 4 e + a

  Chorus x2
G|------------------------------------------------------------------|
D|o-------------------------------0-1-------------------------------|
A|o-----------------------------------2---2-----2---3---------------|
E|--1---1---------3-------------------------------------------------|
    1 e + a 2 e + a 3 e + a 4 e + a 1 e + a 2 e + a 3 e + a 4 e + a

G|------------------------------------------------------------------|
D|-------------------------3-----0-1---------------------3---------o|
A|-----------------------------------2---2-----2---3---------6-\---o|
E|-1---1-----1-1-3--------------------------------------------------|
   1 e + a 2 e + a 3 e + a 4 e + a 1 e + a 2 e + a 3 e + a 4 e + a

  Verse
G|-----------------------------------------------------------------|
D|-------------------------------0-1-------------------------------|
A|-----------------------------------2---2-----2---3---------------|
E|-1---1---------3-------------------------------------------------|
   1 e + a 2 e + a 3 e + a 4 e + a 1 e + a 2 e + a 3 e + a 4 e + a

G|-----------------------------------------------------------------|
D|-------------------------3-----0-1---------------------3---------|
A|-----------------------------------2---2-----2---3---------6-\---|
E|-1---1-----1-1-3-------------------------------------------------|
   1 e + a 2 e + a 3 e + a 4 e + a 1 e + a 2 e + a 3 e + a 4 e + a

G|-----------------------------------------------------------------|
D|-------------------------------0-1-------------------------------|
A|-----------------------------------2---2-----2---3---------------|
E|-1---1---------3-------------------------------------------------|
   1 e + a 2 e + a 3 e + a 4 e + a 1 e + a 2 e + a 3 e + a 4 e + a

G|-----------------------------------------------------------------|
D|-----------------------------------------------------------------|
A|-----------------------------------------------------------------|
E|-1---1-----1-1-3-------------------------------------------------|
   1 e + a 2 e + a 3 e + a 4 e + a 1 e + a 2 e + a 3 e + a 4 e + a

  Chorus
G|-----------------------------------------------------------------|
D|---------------------------------1-------------------------------|
A|-----------------------------------2---2-----2---3---------------|
E|-----------------------------------------------------------------|
   1 e + a 2 e + a 3 e + a 4 e + a 1 e + a 2 e + a 3 e + a 4 e + a

G|-----------------------------------------------------------------|
D|-------------------------3-----0-1---------------------3---------|
A|-----------------------------------2---2-----2---3---------6-\---|
E|-1---1-----1-1-3-------------------------------------------------|
   1 e + a 2 e + a 3 e + a 4 e + a 1 e + a 2 e + a 3 e + a 4 e + a

G|-----------------------------------------------------------------|
D|-------------------------------0-1-------------------------------|
A|-----------------------------------2---2-----2---3---------------|
E|-1---1---------3-------------------------------------------------|
   1 e + a 2 e + a 3 e + a 4 e + a 1 e + a 2 e + a 3 e + a 4 e + a

G|-----------------------------------------------------------------|
D|-------------------------3-----0-1---------------------3---------|
A|-----------------------------------2---2-----2---3---------6-\---|
E|-1---1-----1-1-3-------------------------------------------------|
   1 e + a 2 e + a 3 e + a 4 e + a 1 e + a 2 e + a 3 e + a 4 e + a

  Bridge x2
G|------------------------------------------------------------------|
D|o-----------------------------------------------------------------|
A|o-3-------------2-r---------------1---1-----1---0-r---------------|
E|------------------------------------------------------------------|
    1 e + a 2 e + a 3 e + a 4 e + a 1 e + a 2 e + a 3 e + a 4 e + a

G|------------------------------------------------------------------|
D|-----------------------------------------------------------------o|
A|-----------------------------------------------------------------o|
E|-4---4---------4-r---------------3-------------3------------------|
   1 e + a 2 e + a 3 e + a 4 e + a 1 e + a 2 e + a 3 e + a 4 e + a

  Bridge Contiued
G|-----------------------------------------------------------------|
D|-----------------------------------------------------------------|
A|-3-------------2-r---------------1---1-----1---0-r---------------|
E|-----------------------------------------------------------------|
   1 e + a 2 e + a 3 e + a 4 e + a 1 e + a 2 e + a 3 e + a 4 e + a

G|-----------------------------------------------------------------|
D|-----------------------------------------------------------------|
A|---------------------------------------------------3---2-3-2-----|
E|-4---4---------4-r---------------3-------------3-------------3-2-|
   1 e + a 2 e + a 3 e + a 4 e + a 1 e + a 2 e + a 3 e + a 4 e + a

  Chorus x4
G|------------------------------------------------------------------|
D|o-------------------------------0-1-------------------------------|
A|o-----------------------------------2---2-----2---3---------------|
E|--1---1---------3-------------------------------------------------|
    1 e + a 2 e + a 3 e + a 4 e + a 1 e + a 2 e + a 3 e + a 4 e + a

G|------------------------------------------------------------------|
D|-------------------------3-----0-1---------------------3---------o|
A|-----------------------------------2---2-----2---3---------6-\---o|
E|-1---1-----1-1-3--------------------------------------------------|
   1 e + a 2 e + a 3 e + a 4 e + a 1 e + a 2 e + a 3 e + a 4 e + a

Tabbed By Jack Mills

            
            
Suggest correction
Creating personal tab
Creating personal tab
You can edit any tab online and save it as your Personal.

You can edit, replace or remove any tab part or add personal notes – all changes will be seen only by you.

Personal tabs can be accessed anytime from any device, even offline.
Learn more »
comments
print report bad tab
1 comment total.
0 reply
jonesb4 10 Jun 20, 2016 08:23 AM

you should tab She's American!

guest
You may want to rate the tab now too:
select rating
Wanna post a correction for this tab? Suggest correction