Oops, an error
Loading. Please wait.

What Makes You Beautiful Cover tab

613 views 1 this week
no commentswrite comment
1 2 3 4 5
1 last vote to show rating
add to favorites
×
Save as Personal and add changes to this tab that will be seen only by you. Learn more ›
×
You can save this tab as Personal to edit and correct it or add notes. All changes will be seen only by you. Learn more »
launch autoscroll
font size
0
reset
how to read this tab
guitar tuner
edit
Autoscroll
slow
fast
+/-
esc
set tempo
stop
Author
Difficulty
Hann's part for the cover of One Direction's What Makes You Beautiful from the BBC Radio 1 Live Lounge

// https://www.youtube.com/watch?v=tEVXmzHY1lU // <- slashes for that 1975 style :)

Tuning is standard

V E R S E O N E // compressed and reverbed I think, Hann just literally plays hammer ons without picking and
lets notes ring. He plays it every now and again but I can't pinpoint how many times, if you watch the video 
you'll notice when //

E ----------------
A ----------------
D ----------------
G -----12h14--12-- 
B ----------------
e ----------------

C H O R U S // uses lots of distortion and some reverb, he starts picking here and then sliding //

E -------------------------------------------------------------------------------------------
A -------------------------------------------------------------------------------------------
D -------------------------------------------------------------------------------------------
G -------------------------------------------------------------------------------------------
B ---8s13----8s15----8s13----8s12--13-----8s13----8s15----8s13----8s12--13---------10s15-----
e -------------------------------------------------------------------------------------------

S O L O // same settings as for the chorus //

E -------------------------------------         ----------------------
A -------------------------------------         ----------------------
D ---------------12h14p12----10-------- x3 then ----------------------
G ---12h14p12--------------------------         -12h14p12-------------
B -------------------------------------         -----------15h17p15---
e -------------------------------------         ----------------------

O U T R O

E ----------------------------
A ----------------------------
D ----------------------------
G ----------------------------
B --17 (let ring)-------------
e ------17(x8)--15(x8)--17(x8)// repeat playing 15 and 17 on e until end //


This was done completely by ear so may be out in places, hope you like it, pls rate and leave comments
Suggest correction
Creating personal tab
Creating personal tab
You can edit any tab online and save it as your Personal.

You can edit, replace or remove any tab part or add personal notes – all changes will be seen only by you.

Personal tabs can be accessed anytime from any device, even offline.
Learn more »
Give kudos to tab author, rate the tab!
1 2 3 4 5
comments
print report bad tab
guest
You may want to rate the tab now too:
select rating
Wanna post a correction for this tab? Suggest correction