Oops, an error
Loading. Please wait.

Woman tab

version 1
version 1

Whole song

5,819 views 48 this week
2 commentsread comments
1 2 3 4 5
x 6
add to favorites
×
Save as Personal and add changes to this tab that will be seen only by you. Learn more ›
×
You can save this tab as Personal to edit and correct it or add notes. All changes will be seen only by you. Learn more »
launch autoscroll
font size
0
reset
how to read this tab
guitar tuner
edit
Autoscroll
slow
fast
+/-
esc
set tempo
stop
Capo on the 6th
Tabbed by: Max Freitag

Cm7 (020010)
Am7 (002010)
Fm7 (102010)
G   (320010)
(Use your thumb for the Fm7 Chord )

      C                  Cm7                  Am7
e|---------------------------------------------------------0-----------------|
B|----------1------------------1-------------------1-----------1-------------|
G|--------------0------------------0-------------------------------0---------|
D|------2-----------2------0-----------0-------2-------2---------------2-----|
A|----3---3---3---3------2---2---2---2-------0---0---0---0---0---0---0---0---|
E|---------------------------------------------------------------------------|

                      Fm7                   G
e|---------------------------------------------------------------------------|
B|------0---1---1-----------1-------------------1-------------0---1---0------|
G|------0---0---0---------------0---------------0-------------0---0---0------|
D|----------------------2-----------2----------------------------------------|
A|----0---0---0-----------------------------2-------2------------------------|
E|--------------------1---1---1---1-------3---3---3---3-----3---3---3--------|        
(repeat x3 times)

      Am7                                  C
e|---------------------------------------------------------------------------|
B|----------1----------------1-------------------1---------------------------|
G|------------------0---------------------------------0----------------------|
D|------2-------2--------2-------------------2------------2------------------|
A|----0---0---0---0----0---0---0-----------3---3----3---3---3----------------|
E|---------------------------------------------------------------------------|

      Fm7                   G                   Gm
e|---------------------------------------------------------------------------|
B|----------1---------------------1------------------------------------------|
G|--------------0---------------------0-----------4---4---4---4--------------|
D|------2-----------2---------------------2-------0---0---0---0--------------|
A|---------------------------2-----------------------------------------------|
E|----1---1---1---1-------3-----3---3---3-------4---4---4---4----------------|

      C                   Cm7                 Am7
e|---------------------------------------------------------0-----------------|
B|----------1------------------1-------------------1-----------1-------------|
G|--------------0------------------0-------------------------------0---------|
D|------2-----------2------0-----------0-------2-------2---------------2-----|
A|----3---3---3---3------2---2---2---2-------0---0---0---0---0---0---0---0---|
E|---------------------------------------------------------------------------|

                      Fm7                   G
e|---------------------------------------------------------------------------|
B|------0---1---1-----------1-------------------1-------------0---1---0------|
G|------0---0---0---------------0---------------0-------------0---0---0------|
D|----------------------2-----------2----------------------------------------|
A|----0---0---0-----------------------------2-------2------------------------|
E|--------------------1---1---1---1-------3---3---3---3-----3---3---3--------|

       Fm7                  G                     Gm
e|------------------------------------------------------------------0--------|
B|----------1---------------------1---------------------------------1--------|
G|--------------0---------------------0-----------4---4---4---4-----0--------|
D|------2-----------2---------------------2-------0---0---0---0-----2--------|
A|---------------------------2--------------------------------------3--------|
E|----1---1---1---1-------3-----3---3---3-------4---4---4---4-------0--------|

     Fm7                    G                   C
e|------------------------------------------------------0--------------------|
B|----------1---------------------1---------------------1--------------------|
G|--------------0---------------------0-----------------0--------------------|
D|------2-----------2---------------------2-------2-----2--------------------|
A|---------------------------2------------------3---3---3--------------------|
E|----1---1---1---1-------3-----3---3---3---------------0--------------------|

            
            
Suggest correction
Creating personal tab
Creating personal tab
You can edit any tab online and save it as your Personal.

You can edit, replace or remove any tab part or add personal notes – all changes will be seen only by you.

Personal tabs can be accessed anytime from any device, even offline.
Learn more »
comments
print report bad tab
2 comments total.
+1 reply
xbouncer927 90 Feb 27, 2017 11:47 PM

this isnt even remotely correct..

guest
Wanna post a correction for this tab? Suggest correction