Oops, an error
Loading. Please wait.

You tab

version 1
version 1

Whole song

  • Opening riff is played different live compared to ... Show more
33,549 views 84 this week
3 commentsread comments
1 2 3 4 5
x 28
add to favorites
×
Save as Personal and add changes to this tab that will be seen only by you. Learn more ›
×
You can save this tab as Personal to edit and correct it or add notes. All changes will be seen only by you. Learn more »
launch autoscroll
font size
0
reset
how to read this tab
guitar tuner
edit
Autoscroll
slow
fast
+/-
esc
set tempo
stop
Author
Difficulty
Unregistered
-------------------------------------------------------------------------------
                             YOU - The 1975
-------------------------------------------------------------------------------
Tabbed by: Michael Currie
E-mail: mikecurrieis@yahoo.co.uk

Tuning: Standard


[Intro]

G C

This song revolves around 2 guitar riffs.

Riff 1
e|-------------------------------------------------------------------------------|
B|-----12--------12-------14-------12--------------------------------------------|
G|--12----14-12----14-12----12-12----14------------------------------------------|
D|-------------------------------------------------------------------------------|
A|-------------------------------------------------------------------------------|
E|-------------------------------------------------------------------------------|

Riff 2
Play this but you can work out how many notes.
e|-------------------------------------------------------------------------------|
B|-----15-15-15-15-15-12-12-12---------------------------------------------------|
G|------------------------------14-14-14-----------------------------------------|
D|-------------------------------------------------------------------------------|
A|-------------------------------------------------------------------------------|
E|-------------------------------------------------------------------------------|


[Verse 1]

                        G
And you're a liar
                             C
At least all of your friends are
                  G
And so am I
                     C
Just typically drowned in my car

It's my party
And I'll cry to the end
You must try harder
In kissing all of my friends, you


[Chorus]

Yeah it takes a bit more
Yeah it takes a bit more than you
It takes a bit more
Yeah it takes a bit more than you


[Verse 2]

And you're alive
At least as far as I can tell you are
And so am I
You beat me down and then we're back to my car

And it's so ironic
How it's only been a year
And it's not my fault
That I fucked everybody here


[Chorus] (x2)

Yeah it takes a bit more
Yeah it takes a bit more than you
It takes a bit more
Yeah it takes a bit more than you


[Verse 3]

And I say, do you wanna dance? Do you wanna dance?
Do you wanna dance in the bar at the back of the hall?
And I say, do you wanna dance? Do you wanna dance?
Do you wanna dance, dance in the back of the hall?


[Chorus] (x2)

Yeah it takes a bit more
Yeah it takes a bit more than you
It takes a bit more
Yeah it takes a bit more than you

            
            
Suggest correction
Creating personal tab
Creating personal tab
You can edit any tab online and save it as your Personal.

You can edit, replace or remove any tab part or add personal notes – all changes will be seen only by you.

Personal tabs can be accessed anytime from any device, even offline.
Learn more »
comments
print report bad tab
3 comments total.
+1 reply
beachfossils 328 Aug 03, 2015 05:50 PM

Only a minor adjustment but I believe Hann plays the chorus as/

E|-----------------
B|--15(x8)--12/10--
G|-----------------
D|-----------------
A|-----------------
E|-----------------

0 reply
pringleakiyo 12 May 24, 2017 06:43 AM

At the end of the song im pretty sure it plays (or something along those lines)
e|--------------12---------------
B|-----15--15-------12---15------
G|-------------------------------
D|-------------------------------
A|-------------------------------
E|-------------------------------

guest
Wanna post a correction for this tab? Suggest correction