Oops, an error
Loading. Please wait.

Aquarius-Let The Sunshine In The Flesh Failures bass

version 1
version 1

Whole song

Interactive

1,067 views 9 this week
no commentswrite comment
1 2 3 4 5
x 6
add to favorites
×
Save as Personal and add changes to this tab that will be seen only by you. Learn more ›
×
You can save this tab as Personal to edit and correct it or add notes. All changes will be seen only by you. Learn more »
launch autoscroll
font size
0
reset
guitar tuner
edit
Autoscroll
slow
fast
+/-
esc
set tempo
stop
Author
Difficulty
                         Aquarius/Let The Sunshine In                           


                              The 5th Dimension


Bass


          Intro                                             
     S    H           W                   W                 
G||----|-----------|-------------------|-------------------|
D||----|-----------|-------------------|-------------------|
A||----|-----------|-------------------|-------------------|
E||----|-----------|-------------------|-------------------|


  Riff A                                                 
  E.     S E  E  E.  S E  E     E.  S E  E  E.  S E  E   
-----------------------------|--------------------------|
-----------------------------|--------------------------|
--3------3-3-----3---3-3-----|--3---3-3-----3---3-3-----|
--------------3-----------3--|-----------3-----------3--|


  E.  S E  E  E.  S E  E     E.  S E  E  E.  S E  E   
--------------------------|--------------------------|
--------------------------|--------------------------|
--3---3-3-----3---3-3-----|--3---3-3-----3---3-3-----|
-----------3-----------3--|-----------3-----------3--|


  Verso Riff 1                                                 
  E.           S E  E  E.  S E  E     E.  S E  E  E.  S E  E   
-----------------------------------|--------------------------|
-----------------------------------|--------------------------|
--3------------3-3-----3---3-3-----|--3---3-3-----3---3-3-----|
--------------------3-----------3--|-----------3-----------3--|


  E.  S E  E  E.  S E  E     E.  S E  E  E.  S E  E   
--------------------------|--------------------------|
--------------------------|--------------------------|
--3---3-3-----3---3-3-----|--3---3-3-----3---3-3-----|
-----------3-----------3--|-----------3-----------3--|


  E.  S E  E  E.  S E  E     E.  S E  E  E.  S E  E   
--------------------------|--------------------------|
--------------------------|--------------------------|
--3---3-3-----3---3-3-----|--3---3-3-----3---3-3-----|
-----------3-----------3--|-----------3-----------3--|


                                                    Coro                      
  E.  S E  E  E.  S E  S  S    Q    H.              E.   S E  E  E.  S E  E   
----------------------------|--------------------|---------------------------|
----------------------------|--------------------|--6----6-6-----6---6-6-----|
--6---6-6-----8---8-8-------|--------------------|------------6-----------6--|
-----------6-----------8s-7-|--6-----------------|---------------------------|


  E.  S E  E  E.  S E  E     E.  S E  E  E.  S Q       E.  S E  E  E.  S E  E   
--------------------------|-------------------------|--------------------------|
--6---6-6-----6---6-6-----|-----------5-------------|--3---3-3-----3---3-3-----|
-----------6-----------6--|--3---3-3-----3---3-3----|-----------3-----------3--|
--------------------------|-------------------------|--------------------------|


  E.  S E  E  E.  S E  E     E.  S E  E  E.  S Q     
--------------------------|-------------------------|
--3---3-3-----3---3-3-----|-----------5-------------|
-----------3-----------3--|--3---3-3-----3---3-3----|
--------------------------|-------------------------|


                               Verso Riff 2                      
  E.  S E  E  E.  S E  S  S    E.           S E  E  E.  S E  E   
--------5-----------5-------|-----------------------------------|
------5----5------5---------|--8--------------8-----------5-----|
--3-----------3--------3s-5-|---------------8----8--6---8----6--|
----------------------------|-----------------------------------|


  E.  S E  E  E.  S E  E     E.  S E  E  E.  S E  S  S  
--------------------------|----------------------------|
--8-----8-----------5-----|--8-----8-----------5-------|
------8----8--6---8----6--|------8----8--6---8----6s-4-|
--------------------------|----------------------------|


  Q    Q    E.  S E  E     Q    Q    E.  S Q       E.  S Q    E.  S E  E   
------------------------|-----------------------|-------------------------|
------------------------|-----------------------|--------3----5---5-5-----|
--3----5----6---6-6--6--|--6----5----3---3-3----|--3---3---------------5--|
------------------------|-----------------------|-------------------------|


  Coro                                                 
  E.   S E  E  E.  S E  E     E.  S E  E  E.  S E  E   
---------------------------|--------------------------|
--3----3-3-----3---3-3-----|--3---3-3-----3---3-3-----|
------------3-----------3--|-----------3-----------3--|
---------------------------|--------------------------|


  Riff A                                                 
  E.     S E  E  E.  S E  E     E.  S E  E  E.  S E  E   
-----------------------------|--------------------------|
-----------------------------|--------------------------|
--3------3-3-----3---3-3-----|--3---3-3-----3---3-3-----|
--------------3--------------|-----------3-----------3--|


  E.  S E  E  E.  S E  E     E.  S E  E  E.  S E  E   
--------------------------|--------------------------|
--------------------------|--------------------------|
--3---3-3-----3---3-3-----|--3---3-3-----3---3-3-----|
--------------------------|--------------------------|


  Verso Riff 1                                                 
  E.           S E  E  E.  S E  E     E.  S E  E  E.  S E  E   
-----------------------------------|--------------------------|
-----------------------------------|--------------------------|
--3------------3-3-----3---3-3-----|--3---3-3-----3---3-3-----|
--------------------3-----------3--|-----------3-----------3--|


  E.  S E  E  E.  S E  E     E.  S E  E  E.  S E  E   
--------------------------|--------------------------|
--------------------------|--------------------------|
--3---3-3-----3---3-3-----|--3---3-3-----3---3-3-----|
-----------3-----------3--|-----------3-----------3--|


  E.  S E  E  E.  S E  E     E.  S E  E  E.  S E  E   
--------------------------|--------------------------|
--------------------------|--------------------------|
--3---3-3-----3---3-3-----|--3---3-3-----3---3-3-----|
-----------3-----------3--|-----------3-----------3--|


                                                    Coro                       
  E.  S E  E  E.  S E  S  S    Q    H.              E.   S E  E  E  S S E  E   
----------------------------|--------------------|----------------------------|
----------------------------|--------------------|--6----6-6-----6--6-6-6-----|
--6---6-6-----8---8-8-------|--------------------|------------6------------6--|
-----------6-----------8s-7-|--6-----------------|----------------------------|


  E.  S E  E  E.  S E  S  S    E.  S E  E  E.  S E  E   
----------------------------|--------------------------|
--6---6-6-----6---6-6-------|--------------------------|
-----------6-----------6s-3-|--3---3-3-----3---3-3-----|
----------------------------|-----------3-----------3--|


  E.  S E  E  E.  S E  E     E.  S E  E  E.  S E  E   
--------------------------|--------------------------|
--3---3-3-----3---3-3-----|--3---3-3-----3---3-3-----|
-----------3-----------3--|-----------3-----------3--|
--------------------------|--------------------------|


  E.  S E  E  E.  S E  E     E.  S E  E  E.  S E  E   
--------------------------|--------5-----------5-----|
--------------------------|------5----5------5----5--|
--3---3-3-----3---3-3-----|--3-----------3-----------|
-----------3-----------3--|--------------------------|


  E.  S E  E  E.  S E  E     E.  S E  E  E.  S E  E   
--------------------------|--------------------------|
--3---3-3-----3---3-3-----|--3---3-3-----3---3-3-----|
-----------3-----------3--|-----------3-----------3--|
--------------------------|--------------------------|


  E.  S E  E  E.  S E  E     E  S S S S S S S S S S S S S S  
--------------------------|---------------------------------|
--------------------------|---------------------------------|
--3---3-3-----3---3-3-----|--3--3-3-3-3-3-3-3-3-3-3-3-3-3-3-|
-----------3-----------3--|---------------------------------|


    Bass Riff A                                                
    Q         E.  S E  E  E    E     E  E  E  S E  S E  E  E   
----------------------------------|---------------------------|
--7g9---------------9--9-----7g8--|---------------------------|
--------------9---9-------9-------|--9--9-------9-------------|
----------------------------------|--------9--9----9-6--7--9--|


  E  E  E  E  S S E  E   E     E  E  E  S E  S E  E  E   
----------------------------|---------------------------|
------------------7--8h--9--|--L--9-------9----9--8--9--|
--9--9-----7--9-9-----------|--------9--9----9----------|
--------9-------------------|---------------------------|


  Q    E  S E  S E  E  E     Q    E  S E  S E  S S E   
--------------------------|---------------------------|
--5----5----5----5--4-----|--------------------5-7-8--|
----------5----5-------7--|--5----5----5----5---------|
--------------------------|----------5----5-----------|


  Bass Riff B/Coro                                                      
  Q                E  S E  S E  E  E     Q    E   S   E   S E   E   E   
--------------------------------------|---------------------9--11------|
--9----------------9----7----9-----9--|----------10h-11--11--------11--|
----------------------9----9----9-----|--9----9------------------------|
--------------------------------------|--------------------------------|


  Q    E  S E  S E  E  E     Q    E  S E  S E  E  E   
--------------------------|--------------------------|
-----------------------7--|--9----9----7----8--9-----|
--9----9----7----8--9-----|----------9----9-------9--|
----------9----9----------|--------------------------|


  Q    E  S E  S E  E  E     Q    E.  E.  E  E  E   
--------------------------|------------------------|
--5----5----5----5--4-----|------------------7--8--|
----------5----5-------7--|--5----5---5---5--------|
--------------------------|------------------------|


  Bass Riff C                                                        
  Q           E  S E  S E  E  E     E  E  E.      E.     E.     E.   
---------------------------------|------------10g11---9g11---9g11---|
--9-----------9----7----9-----9--|----------------------------------|
-----------------9----9----9-----|--7--9--9-------------------------|
---------------------------------|----------------------------------|


  Q    E  S E  S E  E  E     Q    E  S E  S E  S E  S  
--------------------------|---------------------------|
-----------------------7--|--9----9----7----9----9----|
--9----9----7----8--9-----|----------9----9----9----5-|
----------9----9----------|---------------------------|


  Q    E  S E  S E  E  E     Q    E.  E.  E  E  E   
--------------------------|------------------------|
--5----5----5----5--4-----|------------------7--8--|
----------5----5-------7--|--5----5---5---5--------|
--------------------------|------------------------|


  Bass Riff D                                               
  Q           E.  S E  E  E  E     Q    E.  S E  S E  S E   
--------------------------------|--------------------------|
--9-----------9-----9--9-----9--|--------------------------|
------------------9-------9-----|--9----9-----7----9----7--|
--------------------------------|-----------9----9----9----|


  Q    E.  S E  E.  S E     Q    E.  S E  S E  S E     Q    E.  S E  E.  S E   
-------------------------|--------------------------|-------------------------|
-------------------------|--9----9-----7----9----9--|--5----5-----5--5-----5--|
--9----9-----9--9-----9--|-----------9----9----9----|-----------5--------5----|
-----------9--------9----|--------------------------|-------------------------|


                              Bass Riff E                  
  Q    E.  E  S E  E  E       Q         E  S E.  E  E  E   
----------------7--------|--------------------------------|
--------------7----7-----|--7g9---------9----7---8--9-----|
--5----5---5----------5--|-----------------9-----------9--|
-------------------------|--------------------------------|


    Q    E.    E.  E.  E.        Q    E.   S  E   Q    E   
---------------------------|----------9------11-----------|
---------------------------|--9g11--------11-----11-------|
--7g9----9---8g9---9---9---|---------------------------9--|
---------------------------|------------------------------|


  Q    E  S E.  E  E  E     Q    E.  S E  E  E  E     Q    E.  E  S E  E  E   
-------------------------|-------------------------|----------------7--------|
--9----9----7---8--9-----|--5----5-----5--5--4-----|--------------7----7-----|
----------9-----------9--|-----------5----------7--|--5----5---5----------5--|
-------------------------|-------------------------|-------------------------|


    Bass Riff F                                               
    Q         E  S E  S E  E  E     E  E  S S E  E  Q    S S  
---------------------------------|---------------------------|
--7g9---------9----7--8-9--9-----|---------------------------|
-----------------9------------9--|--9-----7-7-9-----7----7-7-|
---------------------------------|-----9---------9-----------|


  Q    E  S E  S E  E  E     Q    E  S E  S E  E  E     Q    E.  S E  E  E  E   
--------------------------|--------------------------|-------------------------|
--------------------7--8--|--9----9----9----7--8--9--|--5----5-----5--5--4-----|
--9----9----7--7-9--------|----------9----9----------|-----------5----------7--|
----------9---------------|--------------------------|-------------------------|


                           Bass Riff G                    
  Q    E.  E.  E  E  E     Q           E  S E.  E  E  E   
------------------------|--------------------------------|
------------------7--8--|--9-----------9----7---8--9-----|
--5----5---5---5--------|-----------------9-----------9--|
------------------------|--------------------------------|


    Q    E  S  E   S  E   E  E         Q        E.     E.     E.     E.   
---------------------11---------|--10g11----10g11---9g11---9g11---9g11---|
------------------11-----11-----|----------------------------------------|
--7g9----9--8h-9-------------9--|----------------------------------------|
--------------------------------|----------------------------------------|


  Q    E  S E.  E.  S E     Q    E  S E  S E  E  E     Q    E.  E.  E  E  E   
-------------------------|--------------------------|------------------------|
--9----9----7---9-----9--|--5----5----5----5--4-----|------------------7--8--|
----------9---------9----|----------5----5-------7--|--5----5---5---5--------|
-------------------------|--------------------------|------------------------|


  Bass Riff H                                                    
  E           E  E  S E  S E  E  E     E  E  E  S E  S E  E  E   
------------------------------------|---------------------------|
--9--------------9----9----9-----9--|---------------------------|
--------------9-----9----9----9-----|--9-----9----9----9-----7--|
------------------------------------|-----9-----9----9----9-----|


  E  E  S S E  E  S S E  E     E  E  E  S E.  E  S S E   
----------------------------|---------------------------|
----------------------------|--9-----9----9---9----7-9--|
--9--9----7-9--9----7-9--9--|-----9-----9--------9------|
--------9---------9---------|---------------------------|


  Q    E.  S E  E  S S E     Q    E.    E.    E.  E.   
--------------------------|-----------6g7-------------|
--5----5-----5--5----4-5--|-----------------5g7-------|
-----------5-------5------|--5----5---------------5---|
--------------------------|---------------------------|


    Bass Riff I                                            
    Q         E  S E  E.  E  E     Q    E  S E  E.  E  E   
--------------------------------|-------------------------|
--7g9---------9----7--7------9--|-------------------------|
-----------------9--------9-----|--9----9----7--8---9-----|
--------------------------------|----------9-----------9--|


  E  E  E  S E  S E  E  E     Q    E  S E.  E.  S E   
---------------------------|-------------------------|
------------------------7--|--9----9----9---9---9-9--|
--9-----9----7--7-8--9-----|----------9--------------|
-----9-----9---------------|-------------------------|


  Q    E  S E  S E  E  E     E  Q    S E  S E  S S E   
--------------------------|---------------------------|
--5----5----5----5--4-----|----------------------7-8--|
----------5----5-------7--|--5--5------5----5--5------|
--------------------------|----------5----5-----------|


    Bass Riff J                                                          
    E         E  E  S E  S E  E  E       E  E  E  S  E   S  E   S  S E   
------------------------------------|----------------------11--11-------|
--7g9---------9--9----7--8-9--9-----|-------------------11--------11----|
--------------------9------------9--|--7g9--9--9--8h-9---------------9--|
------------------------------------|-----------------------------------|


  Q    E.  S E  E.  S E     Q    E.  S E  E.  S E     E  E  E  E  E  E  E  E   
-------------------------|-------------------------|--------------------------|
----------------------7--|--9----9-----9--9-----9--|--5--5--5--5--5--5--4-----|
--9----9-----7--8---9----|-----------9--------9----|-----------------------7--|
-----------9-------------|-------------------------|--------------------------|


                              Bass Riff K                      
  Q    E  E  E  E  E  E       E         E  E  S E  S E  E  E   
-------------------------|------------------------------------|
----------------------7--|--7g9---------9--9----7--8-9-----9--|
--5----5-----5-----5-----|--------------------9---------9-----|
----------5-----5--------|------------------------------------|


  Q    E.  S Q    E  E     Q    Q    Q    E  E     Q    E.  S E  E  S S E   
------------------------|-----------------------|--------------------------|
------------------------|--------------------7--|--9----9-----9--9------9--|
--9----9---9-9----9-----|--9----9----9----9-----|-----------9-------9-9----|
---------------------9--|-----------------------|--------------------------|


  E  E  E.  S E  E  E  E     Q    Q      E  E  E  E   
--------------------------|------------6g7-----------|
--5--5--5-----5--4--------|-----------------7-----7--|
------------5-------7-----|--5----5------------5-----|
-----------------------5--|--------------------------|


    Bass Riff L/Outro                                                    
    E               S S E.  S E  E.  S E     Q    E  S E  S  E   E   E   
------------------------------------------|---------------------11------|
--7g9---------------9---9-----7--8-----9--|-----------------11------11--|
----------------------------9--------9----|--9----9----9--9-------------|
------------------------------------------|----------9------------------|


  Q    E.  S E  Q    S S    Q    E  S E  S E  E  E     Q    E  S E  S E  E  E   
-------------------------|--------------------------|--------------------------|
-------------7--7------8-|--9----9----7--7-8--9-----|--5----5----5----5--4-----|
--9----9---9---------9---|----------9------------9--|----------5----5----------|
-------------------------|--------------------------|-----------------------5--|


  Q    E  S E.  E  S S E     Q    E.  S E  E  E  E    
----------------7--7------|-------------------------||
------------7--------7----|--9----9-----9--9-----9--||
--5----5--5------------5--|-----------9-------9-----||
--------------------------|-------------------------||




Duration Legend
---------------
W - whole
H - half
Q - quarter
E - 8th
S - 16th
T - 32nd
X - 64th
. - note dotted
|-n-|  - n-tuplets


Tablature Legend
----------------
L - tied note
x - dead note
g - grace note
(n) - ghost note
> - accentuded note
NH - natural harmonic
AH - artificial harmonic
TH - tapped harmonic
SH - semi harmonic
PH - pitch harmonic
h - hammer on
p - pull off
b - bend
br - bendRelease
pb - preBend
pbr - preBendRelease
brb - bendReleaseBend
\n/ - tremolo bar dip
\n - tremolo bar dive
-/n - tremolo bar Release up
/n\ - tremolo bar inverted dip
/n - tremolo bar return
-\n - tremolo bar Release down
S - shift slide
s - legato slide
/ -  slide into from below or out of upwards
\ -  slide into from above or out of downwards
~ - vibrato
W - wide vibrato
tr - trill
TP - tremolo picking
T - tapping
S - slap
P - pop
< - fade in
^ - brush up
v - brush down

            
            
Suggest correction
Creating personal tab
Creating personal tab
You can edit any tab online and save it as your Personal.

You can edit, replace or remove any tab part or add personal notes – all changes will be seen only by you.

Personal tabs can be accessed anytime from any device, even offline.
Learn more »
comments
print report bad tab
guest
You may want to rate the tab now too:
select rating
Wanna post a correction for this tab? Suggest correction