Oops, an error
Loading. Please wait.

Back In Blood intro tab

version 1
version 1

Intro

Interactive

2,209 views 1 this week
3 commentsread comments
1 2 3 4 5
x 3
add to favorites
×
Save as Personal and add changes to this tab that will be seen only by you. Learn more ›
×
You can save this tab as Personal to edit and correct it or add notes. All changes will be seen only by you. Learn more »
launch autoscroll
font size
0
reset
how to read this tab
guitar tuner
edit
Autoscroll
slow
fast
+/-
esc
set tempo
stop
-------------------------------------------------------------------------------
                             Back in Blood - 69 Eyes
-------------------------------------------------------------------------------
Tabbed by: helsinkivampire
Email: cfontain@my.athens.edu

Tuning: Drop Db (Db Ab Db Gb Bb Eb)


    Intro

eb|-------------------------------------------------------------------|
Bb|-------------------------------------------------------------------|
Gb|-------------------------------------------------------------------|
Db|--5-NH---let-ring---feed-back--------------------------------------|
Ab|-------------------------------------------------------------------|
Db|-------------------------------------------------------------------|

    Palm Mute All Open notes On Top String...

eb|----------------------------------------------------------------|
Bb|----------------------------------------------------------------|
Gb|-------10----7-----12-----10--5---7---10--7---------------------|
Db|-------10----7-----12-----10--5---7---10--7---------------------|
Ab|-------8-----5-----10-----8---3---5---8---5---3-5-3-0------3-5--|
Db|---0-0----0-0---0-0----0-0------0---------------------3-5-------|
                                                   P P P P P


Please rate... My first tab ever and many more to come from the 69 Eyes

new album "Back in Blood"


| NH - Natural Harmonic
| P - Palm Mute

===============================================================================

            
            
Suggest correction
Creating personal tab
Creating personal tab
You can edit any tab online and save it as your Personal.

You can edit, replace or remove any tab part or add personal notes – all changes will be seen only by you.

Personal tabs can be accessed anytime from any device, even offline.
Learn more »
Give kudos to tab author, rate the tab!
1 2 3 4 5
comments
print report bad tab
3 comments total.
0 reply
Tuesday 17 31 Oct 17, 2009 09:55 AM

eb|-----------------------------------------------------------------|
Bb|-----------------------------------------------------------------|
Gb|-------10----7-----12-----10--5---7---10--7--5-------------------|
Db|-------10----7-----12-----10--5---7---10--7--5-------------------|
Ab|-------8-----5-----10-----8---3---5---8---5--3--5-3-------3-5----|
Db|---0-0-----0-----0------0-----------0----0----------5-3-5--------|
^ P P P P P

0 reply
Tuesday 17 31 Oct 17, 2009 09:57 AM

^ p p p p p are not at the right place but you now where they should be.
tab is great, just finish it.

0 reply
Backflash33 10 Oct 22, 2009 11:17 PM

good start looking forward to the finished version.
they were right about the "more aggressive sound" on this one weren't they...

guest
You may want to rate the tab now too:
select rating
Wanna post a correction for this tab? Suggest correction