Oops, an error
Loading. Please wait.

Long Winter Nights bass

28 views 1 this week
no commentswrite comment
1 2 3 4 5
3 more votes to show rating
add to favorites
×
Save as Personal and add changes to this tab that will be seen only by you. Learn more ›
×
You can save this tab as Personal to edit and correct it or add notes. All changes will be seen only by you. Learn more »
launch autoscroll
font size
0
reset
guitar tuner
edit
Autoscroll
slow
fast
+/-
esc
set tempo
stop
Author
Difficulty
Tabbed by: 6METAL6BASSIST6
E-mail: petergriffinav@gmail.com

Tuning: EADG

G|9-------------|
D|--------6-----|
A|--7-----------|
E|--------------|

0:05

G|------------------------------------------------------------------------|
D|7-----------7-----------------------7-----------------------------7-----|
A|------------------7-----------7-----------------7-----5-----------------|
E|------------------------------------------------------------------------|

G|------------------------------------------------------------------------|
D|9-----------9-----------------------9-----------------------------6-----|
A|------------------9-----------9-----------------9-----7-----9-----------|
E|------------------------------------------------------------------------|

G|------------------------------------------------------------------7-----|
D|7-----------7-----9-----------9-----10----------------------10----------|
A|------------------------------------------------------10----------------|
E|------------------------------------------------------------------------|

G|9---9-------------------------------9---9-------------------------------|
D|----------9-----9-----------------9-----------9-----9-------------9-----|
A|------------7-----------------7-----------------7---------------7-----7-|
E|------------------0---0-------------------------------0---0-------------|

0:20

G|------------------------------------------------------------------------|
D|7-----------7-----------------------7-----------------------------------|
A|------------------7-----------7-----------------------5-----7-----9-----|
E|------------------------------------------5-----------------------------|

G|------------------------------------------------------------------------|
D|------------------9-----------9-----------------------------------6-----|
A|10----------10----------------------7-----------7-----7-----9-----------|
E|------------------------------------------0-----------------------------|

G|------------------------------------------------------------------------|
D|7-----------7-----------------------------------------7-----------8-----|
A|------------------7-----------7-----5-----------5-----------------------|
E|------------------------------------------------------------------------|

G|------------------------------------------------------------------------|
D|9-----------9-----------------------------------------------------6-----|
A|------------------10----------9-----7-----------7-----7-----9-----------|
E|------------------------------------------0-----------------------------|

0:37

G|------------------------------------------------------------------------|
D|7-----------7-----------------------7-----------7-----------------------|
A|------------------------------7-----------------------5-----7-----9-----|
E|------------------0-----0-----------------------------------------------|

G|------------------------------------------------------------------------|
D|------------------9-----------9-----------------------------------6-----|
A|10----------10----------------------7-----------7-----7-----9-----------|
E|------------------------------------------0-----------------------------|

G|------------------------------------------------------------------------|
D|7-----------7-----------------------------------------7-----------8-----|
A|------------------7-----------7-----5-----------5-----------------------|
E|------------------------------------------------------------------------|

G|------------------------------------------------------------------------|
D|9-----------9-----------------------------------------------------------|
A|------------------10----------9-----7-----------------------------------|
E|------------------------------------------0-----0-----0-----5-----7-----|

0:53

G|------------------------------------------10----11----------------------|
D|------------10----------------10----------------------------------------|
A|----------------10------10----------------------------------------------|
E|8-----------------8-----------------10----------------------------8-----|

G|------------------------------------------------------------------------|
D|------------------------------------------------------------------------|
A|8-----------8-----------------------------------------------------------|
E|------------------8-----10----11----12----------12----------12----------|

G|------------------------------------------------------------------------|
D|----------------------------------------------------7-5-----------------|
A|------------------------------------3-----------------------7-----3-----|
E|0-----0-----0-----0-----0-----------------------------------------------|

G|------------------------------------------------------------------------|
D|----------------------------------------------------7-5-----------------|
A|------------------------------------3-----------------------7-----3-----|
E|3-----------3-----------3-----------------------------------------------|

G|------------------------------------|
D|------------------5-----------------|
A|------------------------------------|
E|3-----------3-----------3-----------|

1:12

G|------------------------------------------------------------------------|
D|7-----------7-----------------------------------------------------------|
A|------------------7-----------7-----------------------5-----7-----9-----|
E|------------------------------------5-----------5-----------------------|

G|------------------------------------------------------------------------|
D|9-----------9-----------------------9-----------------------------6-----|
A|------------------9-----------9-----------------9-----7-----9-----------|
E|------------------------------------------------------------------------|

G|------------------------------------------------------------------7-----|
D|7-----------7-----9-----------9-----10--------------10------10----------|
A|------------------------------------------------------10----------------|
E|------------------------------------------------------------------------|

G|9---9-------------------------------9---9-------------------------------|
D|----------9-----9-----------------9-----------9-----9-------------9-----|
A|------------7-----------------7-----------------7---------------7-------|
E|------------------0---0-------------------------------0---0-------------|

1:27

G|------------------------------------------------------------------------|
D|7-----------7-----------------------7-----------7-----------------------|
A|------------------7-----------7-----------------------5-----7-----9-----|
E|------------------------------------------------------------------------|

G|------------------------------------------------------------------------|
D|------------------9-----------9-----------------------------------6-----|
A|10----------10----------------------7-----------7-----7-----9-----------|
E|------------------------------------------0-----------------------------|

G|------------------------------------------------------------------------|
D|7-----------7-----------------------------------------7-----------8-----|
A|------------------7-----------7-----5-----------5-----------------------|
E|------------------------------------------------------------------------|

G|------------------------------------------------------------------------|
D|9-----------9-----------------------------------------------------6-----|
A|------------------10----------9-----7-----------7-----7-----9-----------|
E|------------------------------------------0-----------------------------|

1:44

G|------------------------------------------------------------------------|
D|7-----------7-----------------------7-----------7-----------------------|
A|------------------7-----------7-----------------------5-----7-----9-----|
E|------------------------------------------------------------------------|

G|------------------------------------------------------------------------|
D|------------------9-----------9-----------------------------------6-----|
A|10----------10----------------------7-----------7-----7-----9-----------|
E|------------------------------------------0-----------------------------|

G|------------------------------------------------------------------------|
D|7-----------7-----------------------------------------7-----------8-----|
A|------------------7-----------7-----5-----------5-----------------------|
E|------------------------------------------------------------------------|

G|------------------------------------------------------------------------|
D|9-----------9-----------------------------------------------------------|
A|------------------10----------9-----------------------------------------|
E|------------------------------------0-----0-----0-----0-----5-----7-----|

2:01

G|------------------------------------------10----11----------------------|
D|------------------10----------10----------------------------------------|
A|----------------10------10----------------------------------------------|
E|8-----------------------------------10----------------------------10----|

G|------------------------------------------------------------------------|
D|------------------------------------------------------------------------|
A|8-----------8-----------------------------------------------------------|
E|------------------8-----10----11----12----------12----------12----------|

G|------------------------------------------------------------------------|
D|----------------------------------------------------7-5-----------------|
A|------------------------------------3-----------------------7-----3-----|
E|0-----0-----0-----0-----0-----------------------------------------------|

G|------------------------------------------------------------------------|
D|----------------------------------------------------7-5-----------------|
A|------------------------------------3-----------------------7-----3-----|
E|3-----------3-----------3-----------------------------------------------|

G|------------------------------------|
D|------------------5-----------------|
A|------------------------------------|
E|3-----------3-----------3-----------|

2:19

G|------------------------------------------------------------------------|
D|7-----------7-----------------------------------------------------7-----|
A|------------------7-----------7-----------------4-----5-----7-----------|
E|------------------------------------5-----7-----------------------------|

G|------------------------------------------------------------------------|
D|9-----------9-----------------------9-----------------------------6-----|
A|------------------9-----------9-----------------9-----7-----9-----------|
E|------------------------------------------------------------------------|

G|------------------------------------------------------------------7-----|
D|7-----------7-----9-----------9-----10----------10----------10----------|
A|------------------------------------------------------10----------------|
E|------------------------------------------------------------------------|

G|9---9-------------------------------9---9-------------------------------|
D|----------9-----9-----------------9-----------9-----9-------------9-----|
A|------------7-----------------------------------7---------------7-------|
E|------------------0---0-------------------------------0---0-------------|

2:36

G|------------------------------------------------------------------------|
D|7-----------7-----------------------7-----------------------------7-----|
A|------------------7-----------7-----------------7-----5-----7-----------|
E|------------------------------------------------------------------------|

G|------------------------------------------------------------------------|
D|9-----------9-----------------------9-----------9-----------------6-----|
A|------------------9-----------9-----------------------7-----9-----------|
E|------------------------------------------------------------------------|

G|------------------------------------------------------------------------|
D|------------------------------------7-----------------------------7-----|
A|------------------7-----------7-----------------7-----5-----7-----------|
E|----5-----------7-------5-----------------------------------------------|

G|------------------------|
D|9-----------9-----------| fades out here.
A|------------------9-----|
E|------------------------|

            
            
Suggest correction
Creating personal tab
Creating personal tab
You can edit any tab online and save it as your Personal.

You can edit, replace or remove any tab part or add personal notes – all changes will be seen only by you.

Personal tabs can be accessed anytime from any device, even offline.
Learn more »
Give kudos to tab author, rate the tab!
1 2 3 4 5
comments
print report bad tab
guest
You may want to rate the tab now too:
select rating
Wanna post a correction for this tab? Suggest correction