Oops, an error
Loading. Please wait.

Confessions Of A Dangerous Mouth Bass Tab

73 views 1 this week
no commentswrite comment
1 2 3 4 5
please rate
add to favorites
launch autoscroll
font size
0
reset
guitar tuner
Tab Pro tools
  • play this tab
  • loop segment
  • change instrument
  • show fretboard
  • metronome
×
Best way to learn
"Confessions Of A Dangerous Mouth"
Autoscroll
slow
fast
+/-
esc
set tempo
stop
Contributor
The A.K.A.s
Confessions of a Dangerous Mouth
Standard Tuning

Since there is a guitar tab up, we might as well have the bass line too.  Great song 
a great band.  Comments, suggestions, constructive criticism are welcome.  Thanks and 
:)

\ - Slide down

Part A – 0:17 - (1x)
G|---------------------------|
D|---------------------------|
A|--5555-5555-5555-55-5550---|
D|---------------------------|

Part B – 0:21 – (7x)
G|-----------------|
D|-----------------|
A|--5-555--00-00---|
D|-----------------|

Part C – 0:41 - (1x)
G|-----------------|
D|-----------------|
A|--5555--00-------|
D|-----------3-1---|

Part D – 0:44 - (1x)
G|--------------------------------|
D|-------------------------5555---|
A|---------5-555-0-00-00-0--------|
D|-3-33-33------------------------|

Part E – 0:49 - (4x)
G|--------------------|
D|--------------------|
A|--5-5-0-0----3333---|
D|----------33--------|

Part F – 1:00 - (1x)
G|----------------------|
D|----------------------|
A|--33333333-33333333---|
D|----------------------|

Part B (Variation) – 1:03 - (3x)
G|------------------------|
D|------------------------|
A|--5555-5555-5500-0000---|
D|------------------------|

Part C (Variation) – 1:13 - (1x)
G|-----------------|
D|-----------------|
A|--5555-5555-5\---|
D|-----------------|

Part D – 1:25 - (1x)

Part E – 1:29 - (4x)

Part F – 1:40 - (1x)

Part G – 1:43 – (4x)
G|--------------------------------------------|
D|--------------------------------------------|
A|------------0000-0000-1111-1113-5555-5555---|
D|--1111-1113---------------------------------|

Part H – 2:03 – (1x)
G|-------|
D|-------|
A|--5\---|
D|-------|

Part D – 2:16 – (1x)

Part E – 2:21 – (8x)

Part H – 2:43 – (1x)
comments
We did not receive enough feedback on this tab! Please rate:
print report bad tab
1 2 3 4 5
I want to post or [tab]
guest
You may want to rate the tab now too:
select rating
Please do not post tabs as comments. Select "correction" instead!