Oops, an error
Loading. Please wait.

Intro tab

version 1
version 1

Whole song

Interactive

1,741 views 1 this week
2 commentsread comments
1 2 3 4 5
1 last vote to show rating
add to favorites
×
Save as Personal and add changes to this tab that will be seen only by you. Learn more ›
×
You can save this tab as Personal to edit and correct it or add notes. All changes will be seen only by you. Learn more »
launch autoscroll
font size
0
reset
how to read this tab
guitar tuner
edit
Autoscroll
slow
fast
+/-
esc
set tempo
stop
  - palm mute           /  - slide up to     ah - Artificial harmonics
\  - slide down to       ~  - vibrato         __ - Tremolo pick
h  - hammer on           b  - Bend                       \
p  - pull off            Suffixes for bend                \
t  - tap                 f  - full bend    h - half bend   \ - Dive with bar
ph - pinched harmonic    q  - quarter bend t - tap bend
*  - see comment         ^  - Hold bend    r release bend  /
x  - Staccato            ~  - vibrato bend                / - Raise with bar
,  - slight palm mute    () - ghost note, sustained note /
"  - tremolo note        <> - Trill



Intro - Some cool effect.


0:09
Riff 1 Both guitars
|----------------------------|------|---------------------------|
|----------------------------|------|---------------------------|
|----------------------------|------|---------------------------|
|----------5-4-------4-5-----|-..2x-|----------5-4-------4-5----|
|------6-7-----7-6-5-----7~--|------|------6-7-----7-6-5-----7~-|
|-0--------------------------|------|-8-------------------------|


0:21
|--------------------|------------------|
|--------------------|------------------|
|--------------------|------------------|
|----------5-4-------|--------5-4-------|
|------6-7-----7-6-5-|----6-7-----7-6-5-|
|-5------------------|-7----------------|


0:25
Riff 2 guitar one
|-------------------------------|------|------------------------------|
|-------------------------------|------|------------------------------|
|-------------------------------|------|------------------------------|
|-----------5-4--------4-5------|-..2x-|-----------5-4--------4-5-----|
|------6-7------7--6-5-----7~---|------|------6-7------7--6-5-----7~--|
|-0-----------------------------|------|-8----------------------------|
|
|      guitar two
|------------------------------|-------|------------------------------|
|------------------------------|-------|------------------------------|
|------------------------------|-------|------------------------------|
|-----------9-7--------7-9-----|-..2x--|-----------9-7--------7-9-----|
|------9-10-----10-9-7-----10~-|-------|------9-10-----10-9-7-----10~-|
|-0----------------------------|-------|-8----------------------------|


0:38
       guitar one
|----------------------|--------------------|
|----------------------|--------------------|
|----------------------|--------------------|
|-----------5-4--------|---------5-4--------|
|------6-7------7--6-5-|----6-7------7--6-5-|
|-5--------------------|-7------------------|
|
|      guitar two
|----------------------|--------------------|
|----------------------|--------------------|
|----------------------|--------------------|
|-----------9-7--------|---------9-7--------|
|-0----9-10-----10-9-7-|----9-10-----10-9-7-|
|----------------------|-7------------------|


Repeat riff 2 many times


0:43
Solo
|-----------------------------------------------------------------|
|-----------------------------------------------------------------|
|-/9~~-----9-11-12-11~~---11-12-14-15bh-14~---16-16/17-16~--14~~--|
|-----------------------------------------------------------------|
|-----------------------------------------------------------------|
|-----------------------------------------------------------------|


1:00
Solo 2
|-----------------------------------------------------------------|
|-----------------------------------------------------------------|
|-/9~~-----9-11-12-11~~---11-12-14-15bh-14~---16-16/17-16~--14~~--|
|-----------------------------------------------------------------|
|-----------------------------------------------------------------|
|-----------------------------------------------------------------|
|
|
|/12~~----12-14-15-14~~---14-15-17-18bh-17----19-19/20-19~--17~~--|
|-----------------------------------------------------------------|
|-----------------------------------------------------------------|
|-----------------------------------------------------------------|
|-----------------------------------------------------------------|
|-----------------------------------------------------------------|


Repeat solo 2 many times


1:16
Solo 3 Left channel
|-24-19-22-17-20-15-17-15------------24-19-22-17-20-15-17-15-----------|
|-------------------------17-15-15~~-------------------------17-15-17~-|
|----------------------------------------------------------------------|
|----------------------------------------------------------------------|
|----------------------------------------------------------------------|
|----------------------------------------------------------------------|
|
|      Right channel
|-------------24-19-22-17-20-15------------------24-19-22-17-20-15-----|
|------------------------------/15~~-------------------------------17~-|
|----------------------------------------------------------------------|
|----------------------------------------------------------------------|
|----------------------------------------------------------------------|
|----------------------------------------------------------------------|


Repeat Solo 3 many times


1:31
Ending
|-----------------------|
|-----------------------|
|-----------------------|
|-----------------------|
|-----------------------|
|-0---------------------|
|
| (harmonized)
|-24~-------------------|
|-17--------------------|
|-----------------------|
|-----------------------|
|-----------------------|
|-----------------------|



Suggest correction
Creating personal tab
Creating personal tab
You can edit any tab online and save it as your Personal.

You can edit, replace or remove any tab part or add personal notes – all changes will be seen only by you.

Personal tabs can be accessed anytime from any device, even offline.
Learn more »
Give kudos to tab author, rate the tab!
1 2 3 4 5
comments
print report bad tab
2 comments total.
0 reply
kdilnexqo 10 Oct 23, 2009 07:23 AM

How does this have 5 stars when it doesn't even say what tuning it is in?

0 reply
kdilnexqo 10 Jan 08, 2010 08:17 AM

Because its an excellent ****ing tab. If you knew anything about The Absence you would know they play in C Standard.

guest
Wanna post a correction for this tab? Suggest correction