Oops, an error
Loading. Please wait.

Flashing Lights Surround Me Bass Tab

105 views 1 this week
no commentswrite comment
1 2 3 4 5
please rate
add to favorites
launch autoscroll
font size
0
reset
guitar tuner
Autoscroll
slow
fast
+/-
esc
set tempo
stop
Help us to improve Ultimate-Guitar.com Take our survey!
×
Author
Difficulty
intermediate
One person Bass song by: The Abuse
Written by Tim Ayers, bassist for The Abuse

|-0-7--9-7-5--7-5--3-5-3-0-1-0-|
|------------------------------|
|------------------------------|
|------------------------------| Intro, Play X2

|---------------------------------------------------------|
|---------------------------------------------------------|
|-----7777---------------7777----------------7777---------|
|-0000----0033220101-0000----10-11-12-12-0000----00332211-| Play X2 (Chorus) 

|-------------0232-------------2-0-------------5-3|
|-------020--------------020--------------02------|
|-----02---------------02---------------02--------|
|-0-02-------------0-02-------------0-02----------| Play X2 (Interlude) Refrain to 
chorus. Play chorus X2

|---------------------------------------------------------|
|---------------------------------------------------------|
|-----7777---------------7777----------------7777---------|
|-0000----0033220101-0000----10-11-12-12-0000----00332211-|(Chorus) Play X1 before "outro"

|--------------------------------0222----------------0232323232010-|
|------------------------------02---------------02-----------------|
|-----7777-------------------02------------02----------------------|
|-0000----332211111111-0-0-02---------02--------------------------0| (Outro)
Suggest correction
Give kudos to tab author, rate the tab!
1 2 3 4 5
comments
print report bad tab
guest
You may want to rate the tab now too:
select rating
Wanna post a correction for this tab? Suggest correction