Oops, an error
Loading. Please wait.

Vines Bass Tab

58 views 1 this week
no commentswrite comment
1 2 3 4 5
please rate
add to favorites
launch autoscroll
font size
0
reset
guitar tuner
Autoscroll
slow
fast
+/-
esc
set tempo
stop
Help us to improve Ultimate-Guitar.com Take our survey!
×
Author
Difficulty
intermediate
Vines by The Abuse
Bass Timothy Ayers
Drums Aidian Riely
Lead Guitar and Vocals Jack Johnston
Album: Russian Roulette EP
/ slide
3-4 or 4-4

|----------------------------------------|
|----------------------1-1-1-------------|
|-------3-3-3-----1-1-------------3-3----|
|1-1-------------------------------------| Play X2


|-----------------------|----------------------------------------|
|-----------------------|--------------------------1-1-----------|
|-----------------------|----------1-1-----3-3-------------3-3---|
|1-1-----1-1-----12/1---|--1-1-----------------------------------| Play X2
      Play this ^ only once


|-------------------------------------------------------------|
|----------------1-----------------------------------1-----1--|
|1/3-3-3-3-3-3-------3-----------------3-3-3-3-3-3-----3-----3|
|------------------------1-1-1-1-1-1--------------------------|


|-----------------------------------------|
|-----------------------1-1-1-------------|
|--------3-3-3-----1-1------------3-3-----|
|1-1--------------------------------------| Play X4
Suggest correction
Give kudos to tab author, rate the tab!
1 2 3 4 5
comments
print report bad tab
guest
You may want to rate the tab now too:
select rating
Wanna post a correction for this tab? Suggest correction