Oops, an error
Loading. Please wait.

Carbomb guitar pro

version 1
version 1

Whole song

Interactive

4,554 views 3 this week
6 commentsread comments
1 2 3 4 5
x 4
add to favorites
guitar tuner
Autoscroll
slow
fast
+/-
esc
set tempo
stop
Author
File Format
Filesize
Instruments
.gp5
16 Kb
rhythm_guitars, lead_guitars #2, percussions
"Carbomb"
demo version
Play now

or get full version for Free

×
Get full version now!
Learn and play this song
in Tab Pro
Try for free

or get $10 off Welcome Bonus

Get welcome bonus
Get access to Tab Pro version of “Carbomb”!
Tab Pro is a premium guitar tab service, available on PC, Mac, iOS and Android
TRY FOR FREE
Your download will start in 7 seconds
×
Like this song? We have more! Follow us on Facebook for daily tips, lessons and other guitar-related content.
To download “Carbomb” Guitar Pro tab click button below
Please note that you must have Guitar Pro software installed on your
computer in order to view this file.
Suggest correction
comments
report bad tab
6 comments total. Showing first comments.
0 reply
xmurderoticax 373 Jul 21, 2007 07:22 PM

Sounds good, but I think it needs to be sped up just a little bit.

0 reply
agesofwar 86 Jul 24, 2009 01:51 PM

how can you possibly not be able to figure this song out 100%? this is really pathetic considering how easy the song is. check out the tab I posted if you want the 100% version...

0 reply
agesofwar 86 Aug 10, 2009 10:32 AM

C--|-----|
G--|-----|
D#-|-----|
A#-|-----|
F--|-0-0-|
A#-|-1-1-|
* *

C--|--------------------------------------------| -
G--|--------------------------------------------| |
D#-|--------------------------------------------| x4
A#-|----------------------------2-------1-------| |
F--|-00--000-0-0-0-0-0-0-00-000-2-3-2-1-1-2-1-0-| -
A#-|-11--111-1-1-1-1-1-1-11-111---3-2-1---2-1-0-|
** *** * * * * * * ** *** * * * * * *

C--|------------------|
G--|------------------|
D#-|------------------|
A#-|-2-------1--------| 4x as well.
F--|-2-3-2-1-1-2-1-0--|
A#-|---3-2-1---2-1-0--|
* * * * * *

I think you know the next part as well but in between it does the same riff but octaves lower.

C--|-----------------|
G--|-----------------|
D#-|-----------------|
A#-|-6-------5-------|
F--|---7-6-5---6-5-4-|
A#-|-----------------|
* * * * * *

Sicne UG is being retarded and won't accept it 'cuz it's "too short".

guest
You may want to rate the tab now too:
select rating