Oops, an error
Loading. Please wait.

The Hills Have Eyes Tab

version 1
version 1

Whole song

Interactive

9,058 views 9 this week
no commentswrite comment
1 2 3 4 5
please rate
add to favorites
launch autoscroll
font size
0
reset
how to read this tab
guitar tuner
Autoscroll
slow
fast
+/-
esc
set tempo
stop
Help us to improve Ultimate-Guitar.com Take our survey!
×
-------------------------------------------------------
        THE HILLS HAVE EYES - The Acacia Strain
-------------------------------------------------------

Tabbed by: Steve
Email: f2bacon@gmail.com

Tuning: F C F A# D G for a 6 string. I'd add the extra
lines for a 7 or 8 string, but all that really matters
is the FCFA#  I know there's some speculation about 
Acacia's tuning, but I play this (and the rest of the 
album) in F, and it sounds right. Try for yourself!



|------------------------------------------------------|
|------------------------------------------------------|
|------------------------------------------------------|
|-5---1---4--8--4-------5---1---4--8-----4-44-44-------|
|-5---1---4--8--4-------5---1---4--8-----4-44-44-------|
|------------------------------------------------------|
play the intro riff as an intro twice, as a verse
(different picking) 2 times, then as an intro 2 more times.


|------------------------------------------------------|
|------------------------------------------------------|
|------------------------------------------------------|
|------------------------------------------------------|
|------------------------------------------------------|
|-00000-0000-00-000-00000-00000-0-1-0-3-0-4-3-1-0-1-3--|
|                                                      |x3
|------------------------------------------------------|
|------------------------------------------------------|
|------------------------------------------------------|
|-----------------------------------------3b-----------|
|-----------------------------------------3b-----------|
|-00000-0000-00-000-00000-00000-0-1-0-3-0--------------|


|------------------------------------------------------|
|------------------------------------------------------|
|------------------------------------------555----888--|
|------------------------------------------------------|
|------------------------------------------333----666--|
|-4-3-4-0-00000-4-3-4-4-0-00-4-3-4-0-00000-----00------|
|                                                      |x3
|------------------------------------------------------|
|------------------------------------------------------|
|------------------------------------------555---------|
|-------------------------------------------------444--|
|------------------------------------------333---------|
|-4-3-4-0-00000-4-3-4-4-0-00-4-3-4-0-00000-----00-444--|


back to the breakdown part up there.
then play the intro the same way you did, in the intro.


|------------------------------------------------------|
|------------------------------------------------------|
|------------------------------------------------------|
|------------------------------------------------------|
|------------------------------------------------------|
|-0~~~~~~~~~~~~~~~~~~--0~~~~~~~~~~~~~~~~~----scrape----|


|------------------------------------------------------|
|------------------------------------------------------|
|------------------------------------------------------|
|-------------------------------------------------3----|
|-------------------------------------------------3----| x4
|-1111111-11-111111-1111111-11111-111-0-1b-0-1b-0------|


|------------------------------------------------------|
|------------------------------------------------------|
|------------------------------------------------------|
|-------------------------------------------------3----| x4
|-------------------------------------------------3----|
|-11-111-11-11111-11-1111-111-11-111-1-0-1b-0-1b-0-----|


|------------------------------------------------------|
|------------------------------------------------------|
|------------------------------------------------------|
|-------------------------------------3----------------| x4
|-----s-------------------------------3----------------|
|-1111-11-111-1111-111111-0-1b-0-1b-0------------------|

to end it, just dont play the last 3.
Suggest correction
Give kudos to tab author, rate the tab!
1 2 3 4 5
comments
print report bad tab
guest
You may want to rate the tab now too:
select rating
Wanna post a correction for this tab? Suggest correction