Oops, an error
Loading. Please wait.

About A Girl Bass Tab

version 1
version 1

Whole song

Interactive

13,116 views 9 this week
4 commentsread comments
1 2 3 4 5
accurate
x 10
add to favorites
launch autoscroll
font size
0
reset
guitar tuner
Tab Pro tools
  • play this tab
  • loop segment
  • change instrument
  • show fretboard
  • metronome
Autoscroll
slow
fast
+/-
esc
set tempo
stop
Difficulty
novice
intro(x1)/VERSE(x2)
G----------------------------------------------------------------------|
D----------------------------------------------------------------------|
A--5-5-5-55-55-5555-7-7-7-77-77-7777-----------------------------------|
E------------------------------------9-9-9-99-99-9999-2-2-2-22-22-2222-|

end of verse
G---------------------------|
D---------------------------|
A--5555555555555555/77777777
E---------------------------

chorus
G--------------------------------------------------------------------------------|
D--------------------------------------------------------------------------------|
A-----------------------------------55555555-77777777----------------------------|
E--5555555555555555-2222222222222222-------------------55555555-2-2-2-22-22-2222-|

bridge  (To be loved)   (What more...)(To be loved)(Everyone...)
G------------------------------------------------------------------|I
D------------------------------------------------------------------|I
A--------------5~---------7~---------------------------------------|I
E----------------------------------------2~---------5~----------I--| X2
  (I'm not...) (This is...) (I'm not...) (words...)
G--------------------------------------------------|
D--------------------------------------------------|
A--------------------------------5~-------7~-------|
E--5~-------------2~-------------------------------|

chorus X2

G--
D--
A--
E-5~

My first tab posted, be nice =)

AIM: musiclovers2013
comments
print report bad tab
4 comments total. Showing first comments.
0 reply
SnipShot wrote on November 11 2008, 04:17 pm

nice job on the tab man

0 reply
MusicMan24 wrote on February 4 2009, 09:07 pm

Bad tab

0 reply
akocabs wrote on July 31 2011, 03:32 am

sounds okay...

I want to post or [tab]
guest
You may want to rate the tab now too:
select rating
Please do not post tabs as comments. Select "correction" instead!