Oops, an error
Loading. Please wait.

About A Girl Tab

version 2
version 2

Whole song

Interactive

22,267 views 6 this week
no commentswrite comment
1 2 3 4 5
accurate
x 7
add to favorites
launch autoscroll
font size
0
reset
how to read this tab
guitar tuner
Tab Pro tools
  • play this tab
  • loop segment
  • change instrument
  • show fretboard
  • metronome
Autoscroll
slow
fast
+/-
esc
set tempo
stop
Contributor
Gt.1

Intro
[--999-9-999-1010-777-7-777-1212-1010-999-99779-5---|
[---------------------------------------------------|
[---------------------------------------------------|
[---------------------------------------------------|
[---------------------------------------------------|
[---------------------------------------------------|

Gt.2
[-----------------------------------------------------------------------|
[-----------------------------------------------------------------------|
[--7-7-7-7-7-7-7-7--9-9-9-9-9-9-9-9--6-6-6-6-6-6-6-6--------------------|x1
[--7-7-7-7-7-7-7-7--9-9-9-9-9-9-9-9--6-6-6-6-6-6-6-6--4-4-4-4-4-4-4-4---|
[--5-5-5-5-5-5-5-5--7-7-7-7-7-7-7-7--4-4-4-4-4-4-4-4--4-4-4-4-4-4-4-4---|
[-----------------------------------------------------2-2-2-2-2-2-2-2---|

Verse
Gt.1
[--NONE--]

Gt.2
[---------------------------------------------------------------------------|
[---------------------------------------------------------------------------|
[--7-7-7--7-7-7-7-7--9-9-9--9-9-9-9-9--6-6-6--6-6-6-6-6---------------------|x2
[--7-7-7--7-7-7-7-7--9-9-9--9-9-9-9-9--6-6-6--6-6-6-6-6--4-4-4--4-4-4-4-4---|
[--5-5-5--5-5-5-5-5--7-7-7--7-7-7-7-7--4-4-4--4-4-4-4-4--4-4-4--4-4-4-4-4---|
[--------------------------------------------------------2-2-2--2-2-2-2-2---|

Chorus

Gt.1
[----------------------------1212-1010109-999------------|
[---------------------------------------------10\5/9-999-|
[--------------------------------------------------------|
[--------------------------------------------------------|
[--------------------------------------------------------|
[--------------------------------------------------------|

GT.2
[--------------------------------------------------------|
[--------------------------------------------------------|
[--6-----------7----9------------------------------------|
[--7-----4-----7-8x-9-8x---------------------------------|
[--7-16x-4-16x-5----7------------------------------------|
[--5-----2-----------------------------------------------|



Gt.1
[--999-9-999-1010-777-7-777-1212-1010-999-99779-5---|
[---------------------------------------------------|
[---------------------------------------------------|
[---------------------------------------------------|
[---------------------------------------------------|
[---------------------------------------------------|
Gt.2
[-----------------------------------------------------------------------|
[-----------------------------------------------------------------------|
[--7-7-7-7-7-7-7-7--9-9-9-9-9-9-9-9--6-6-6-6-6-6-6-6--------------------|x1
[--7-7-7-7-7-7-7-7--9-9-9-9-9-9-9-9--6-6-6-6-6-6-6-6--4-4-4-4-4-4-4-4---|
[--5-5-5-5-5-5-5-5--7-7-7-7-7-7-7-7--4-4-4-4-4-4-4-4--4-4-4-4-4-4-4-4---|
[-----------------------------------------------------2-2-2-2-2-2-2-2---|

2nd Verse 

Chorus x 2

Then:
Gt.1
[----------------------------------------|
[----------------------------------------|
[--------------------7----7--------------|
[--------------------7-8x-7----4----5----|x2
[--------------------5----9-8x-4-8x-5-8x-|
[------------------------------2----7----|
Gt.2
[----------------------------------------|
[----------------------------------------|
[--------------------7----7--------------|
[-7x--xx-xxx--xx-xxx-7-8x-7----4----5----|x2
[-7x--xx-xxx--xx-xxx-5----9-8x-4-8x-5-8x-|
[-7x--xx-xxx--xx-xxx-----------2----7----|

Chorus:
Gt.1
[NONE]

Gt.2
[----------------------------------------------------------------|
[----------------------------------------------------------------|
[--7~------------9~-------------6~-------------------------------|
[--7~------------7~-------------6~------------4~-----------------|
[--5~------------7~-------------4~------------4~-----------------|
[---------------------------------------------2~-----------------|

[----------------------|
[----------------------|
[----------------------|
[-7x--xx-xxx--xx-xxx---|
[-7x--xx-xxx--xx-xxx---|
[-7x--xx-xxx--xx-xxx---|

Chorus x2

comments
print report bad tab
I want to post or [tab]
guest
You may want to rate the tab now too:
select rating
Please do not post tabs as comments. Select "correction" instead!