Oops, an error
Loading. Please wait.

After The Last Midtown Show Tab

version 1
version 1

Whole song

6,819 views 1 this week
2 commentsread comments
1 2 3 4 5
excellent!
x 3
add to favorites
launch autoscroll
font size
0
reset
how to read this tab
guitar tuner
Tab Pro tools
  • play this tab
  • loop segment
  • change instrument
  • show fretboard
  • metronome
Autoscroll
slow
fast
+/-
esc
set tempo
stop
Contributor
Artist: The Academy Is...
Song: After The Last Midtown Show
Album: Fast Times At Barrington High

Intro
[-------------------------------------------|
[-------------------------------------------|
[--9-11-13-14-13-9-6--9-11-13-14-13-9/16-18-|
[-------------------------------------------|
[-------------------------------------------|
[-------------------------------------------|

Verse

G1
[------9---------------|
[-----------------9----|
[----9---9------7---7--|
[--0-------4x--0-------|4x
[----------------------|
[----------------------|

G2
[--12-12-------------12-12--------------|
[--------12-12-14----------12-12-14-----|
[-----------------14----------------14--|
[---------------------------------------|
[---------------------------------------|
[---------------------------------------|

Chorus
[---------------------------|
[---------------------------|
[---------------------------|
[--4----2----4----2----6----|
[--4-8x-2-8x-4-8x-2-8x-6-8x-|
[--2----0----2----0----4----|

Bridge
[------------------------------|
[------------------------------|
[--------6-----9----7----------|
[--7-----6-16x-9-8x-x-8x-4-----| 2x
[--7-16x-4-----7----5----4-16x-|
[--5---------------------2-----|

"we're almost here again we're almost here again" "we're almost"
[--------------------------------------------------|
[--------------------------------------------------|
[-7------------------------------------------------|
[-7-------------------------------------7----------|
[-5-------------------------------------7----------|
[---------------------------------------5----------|

 "right here" "right now"
[--------------------|
[--------------------|
[-7------------------|
[-7--------7---------|
[-5--------7---------|
[----------5---------|
comments
We did not receive enough feedback on this tab! Please rate:
print report bad tab
1 2 3 4 5
2 comments total.
0 reply
Ryo_Sanada wrote on April 18 2009, 11:52 pm

the only thing that didnt sound right was the G# on the chorus. probably just me theough. everything else is perfect

0 reply
subuurbiia wrote on May 8 2009, 01:42 am

hola amigo
jejej grax buena aportacion
esta perfecta
grax

I want to post or [tab]
guest
You may want to rate the tab now too:
select rating
Please do not post tabs as comments. Select "correction" instead!