Oops, an error
Loading. Please wait.

After The Last Midtown Show Tab

version 2
version 2

Whole song

1,171 views 6 this week
no commentswrite comment
1 2 3 4 5
accurate
x 3
add to favorites
launch autoscroll
font size
0
reset
how to read this tab
guitar tuner
Tab Pro tools
  • play this tab
  • loop segment
  • change instrument
  • show fretboard
  • metronome
×
Best way to learn
"After The Last Midtown Show"
Autoscroll
slow
fast
+/-
esc
set tempo
stop
Contributor
awesome song... pretty sure its right... any suggestions email famouslastwordsem@hotmail.com...

its a great song and fairly easy. i mean i can play it so it must be!!!

please rate!!! (preferably 5???)


intro
e-----------------------------------------9-|
B-------9-10-9----------------9-10-9---12---|
G--9-11--------9---------9-11--------9------|
D----------------11-------------------------|
A-------------------------------------------|
E-------------------------------------------|

verse
e-----9-------9-------9-------9-----------------------------------|
B-------------------------------------7-------7-------7-------7---|
G---9---9---9---9---9---9---9---9---9---9---9---9---9---9---9---9-|
D-0-------0-------0-------0-------0-------0-------0-------0-------|
A-----------------------------------------------------------------|
E-----------------------------------------------------------------|


Chorus
e-----------------------|
B-----------------------|
G-----------------------|
D--4-----2-----4-----2--|
A--4-x16-2-x16-4-x16-2--|
E--2-----0-----2-----0--|


Bridge
e------------------------|
B------------------------|
G--------6-----9----7----|
D--7-----6-x16-9-x8-7-x8-| x2
A--7-x16-4-----7----5----|
E--5---------------------|


"we're almost here again we're almost here again" "we're almost"
e-------------------------------------------------|
B-------------------------------------------------|
G-7-----------------------------------------------|
D-7-------------------------------------7---------|
A-5-------------------------------------7---------|
E---------------------------------------5---------|

 "right here" "right now"
e-------------------|
B-------------------|
G-7-----------------|
D-7--------7--------|
A-5--------7--------|
E----------5--------|
comments
We did not receive enough feedback on this tab! Please rate:
print report bad tab
1 2 3 4 5
I want to post or [tab]
guest
You may want to rate the tab now too:
select rating
Please do not post tabs as comments. Select "correction" instead!