Oops, an error
Loading. Please wait.

After The Last Midtown Show Tab

version 3
version 3

Whole song

343 views 3 this week
no commentswrite comment
1 2 3 4 5
please rate
add to favorites
launch autoscroll
font size
0
reset
how to read this tab
guitar tuner
Tab Pro tools
  • play this tab
  • loop segment
  • change instrument
  • show fretboard
  • metronome
×
Best way to learn
"After The Last Midtown Show"
Autoscroll
slow
fast
+/-
esc
set tempo
stop
Contributor
AFTER THE LAST MIDTOWN SHOW- The Academy Is...
E-mail: UnAverageKid2@aim.com

Intro

Guitar 1
e|--9---9-|--9---9-|--0—–-0-|--0---0-|
B|--------|--------|--------|--------|
G|-9-9-9-9|-9-9-9-9|--------|--------|
D|0---0---|0---0---|-7-7-7-7|-7-7-7-7|x2
A|--------|--------|0---0---|0---0---|  
E|--------|--------|--------|--------|

Guitar 2
e|--------|--------|--------|--------|
B|--2---2-|--2—–-2-|--------|--------|
G|-2-2-2-2|-2-2-2-2|--2—–-2-|--2---2-|
D|0—--0---|0—--0---|-2-2-2-2|-2-2-2-2|x2
A|--------|--------|0---0---|0---0---|
E|--------|--------|--------|--------|

Guitar 3
e|---------|-----------|--------|----------|
B|---------|-----------|--------|—---------|
G|9~-/11~-/|13~1413~/9/|6~------|(~)-------|
D|---------|-----------|--------|----------|
A|---------|-----------|--------|----------|
E|---------|-----------|--------|----------|
(continued)
e|---------|-----------|----------|----------|
B|---------|-----------|----------|—---------|
G|9~-/11~-/|13~1413~/9/|16~–-18~--|(~)-------|
D|---------|-----------|----------|----------|
A|---------|-----------|----------|----------|
E|---------|-----------|----------|----------|

Verse

Guitar 1
e|--9---9-|--9---9-|--0—–-0-|--0---0-|
B|--------|--------|--------|--------|
G|-9-9-9-9|-9-9-9-9|--------|--------|
D|0---0---|0---0---|-7-7-7-7|-7-7-7-7|x6
A|--------|--------|0---0---|0---0---|  
E|--------|--------|--------|--------|

Guitar 2
e|--------|--------|--------|--------|
B|--2---2-|--2—–-2-|--------|--------|
G|-2-2-2-2|-2-2-2-2|--2—–-2-|--2---2-|
D|0—--0---|0—--0---|-2-2-2-2|-2-2-2-2|x2
A|--------|--------|0---0---|0---0---|
E|--------|--------|--------|--------|
(continued)
e|--------|--------|--------|--------|
B|-–2---2-|--2—–-2-|--------|--------|
G|-2-2-2-2|-2-2-2-2|--1—–-1-|--1—-–2-|
D|0---0---|0---0---|-2-2-2-2|-2-2-2-2|
A|--------|--------|0---0---|0---0---|
E|--------|--------|--------|--------|
(continued)
e|--------|--------|--------|--------|
B|--2---2-|--2—–-2-|--------|--------|
G|-2-2-2-2|-2-2-2-2|--2—–-2-|--2---2-|
D|0—--0---|0—--0---|-2-2-2-2|-2-2-2-2|x2
A|--------|--------|0---0---|0---0---|
E|--------|--------|--------|--------|
(continued)
e|--------|--------|--------|--------|
B|-–2---2-|--2—–-2-|--------|--------|
G|-2-2-2-2|-2-2-2-2|--1—–-1-|--1—-–2-|
D|0---0---|0---0---|-2-2-2-2|-2-2-2-2|
A|--------|--------|0---0---|0---0---|
E|--------|--------|--------|--------|


Guitar 3 (play twice, rest for a repeat, and play twice more)
e|----------|--------|(/)1212----------|(/)1212----------|
B|----------|--------|-------1212/14~--|-------1212/14~--|
G|(~)-------|--------|---------------14|---------------14|
D|----------|--------|-----------------|-----------------|
A|----------|--------|-----------------|-----------------|
E|----------|--------|-----------------|-----------------|

Chorus

Guitar 1
e|------------------|----------------|
B|------------------|----------------|
G|------------------|----------------|
D|7~7/9~9999\7~7~777|6666666666666666|
A|------------------|----------------|
E|------------------|----------------|
(continued)
e|------------------|------------------------|
B|------------------|------------------------|
G|------------------|--------1616161616161616|
D|7~7/9~9999\7~7~777|66666666 x x x x x x x x|
A|------------------|--------1414141414141414|
E|------------------|------------------------|

Guitar 2
e|----------------|----------------|----------------|----------------|
B|----------------|----------------|----------------|----------------|
G|----------------|----------------|----------------|----------------|
D|4444444444444444|2222222222222222|4444444444444444|2222222266666666|
A|4444444444444444|2222222222222222|4444444444444444|2222222266666666|
E|2222222222222222|0000000000000000|2222222222222222|0000000044444444|

All 3 guitars repeat Intro, Verse 1, and Chorus

Bridge

Guitar 1
e|-------|-------|------------|-------|
B|-------|-------|------------|-------|
G|14(x32)|13(x32)|9(x16)7(x16)|14(x32)|
D|-------|-------|------------|-------|x2
A|-------|-------|------------|-------|
E|-------|-------|------------|-------|

Guitar 2
e|----------------|----------------|----------------|----------------|
B|----------------|----------------|----------------|----------------|
G|2222222222222222|6666666666666666|9999999977777777|----------------|
D|2222222222222222|6666666666666666|99999999xxxxxxxx|4444444444444444|x2
A|0000000000000000|4444444444444444|7777777755555555|4444444444444444|
E|----------------|----------------|----------------|2222222222222222|

Guitar 1 and 2 repeat Intro twice, then all guitars repeat the Intro

Outro

Guitar 1
e|----------------------|
B|----------------------|
G|(/)14141314(/)14141314|
D|----------------------|x10
A|----------------------|
E|----------------------|

Guitar 2
e|--------|--------|--------|--------|
B|-–0---0-|--0—–-0-|--------|--------|
G|-2-2-2-2|-2-2-2-2|--1—–-1-|--1—-–2-|
D|0---0---|0---0---|-2-2-2-2|-2-2-2-2|x2
A|--------|--------|0---0---|0---0---|
E|--------|--------|--------|--------|
(continued)
e|--------|--------|--------|
B|–-0---0-|--0—–-0-|--------|
G|-2-2-2-2|-2-2-2-2|1~------|
D|0---0—--|0---0—--|2~------|
A|--------|--------|0~------|
E|--------|--------|--------|
comments
We did not receive enough feedback on this tab! Please rate:
print report bad tab
1 2 3 4 5
I want to post or [tab]
guest
You may want to rate the tab now too:
select rating
Please do not post tabs as comments. Select "correction" instead!