Oops, an error
Loading. Please wait.

After The Last Midtown Show Tab

version 4
version 4

Whole song

112 views 1 this week
no commentswrite comment
1 2 3 4 5
please rate
add to favorites
launch autoscroll
font size
0
reset
how to read this tab
guitar tuner
Tab Pro tools
  • play this tab
  • loop segment
  • change instrument
  • show fretboard
  • metronome
Autoscroll
slow
fast
+/-
esc
set tempo
stop
Contributor
I played some of the other tabs on this song and I noticed that there were some mistakes 
so I corrected them. Im pretty sure this is right. Please rate!!(:

Intro
e|-------------------------------------------|
B|-------------------------------------------|
G|--9-11-13-14-13-9-6---9-11-13-14-13-9-16-18|
D|-------------------------------------------|
A|-------------------------------------------|
E|-------------------------------------------|

Verse
e|-------9--------------------|
B|--------------------5-------|
G|----9----9------------------|
D|--0---------x4----7---7--x4-| x6
A|----------------0-----------|
E|----------------------------|

Chorus
e|---------------------------|
B|---------------------------|
G|---------------------------|
D|--4-----2-----4-----2------|
A|--4-x16-2-x16-4-x16-2-x16--|
E|--2-----0-----2-----0------|

Verse

Chorus

Bridge
e|------------------------------|
B|------------------------------|
G|--------6-----9----7----------|
D|--7-----6-x16-9-x8-7-x8-4-----|X2
A|--7-X16-4-----7----5----4-X16-|
E|--5---------------------2-----|

 "we're almost here again we're almost here again" "we're almost"
e|-------------------------------------------------|
B|-------------------------------------------------|
G|--7----------------------------------------------|
D|--7-------------------------------------7--------|
A|--5-------------------------------------7--------|
E|----------------------------------------5--------|

 "right here" "right now"
e|-------------------|
B|-------------------|
G|--7----------------|
D|--7-------7--------|
A|--5-------7--------|
E|----------5--------|

Outro
e|--------------------------|
B|--------------------------|
G|------4-----------2-------|
D|----7---7-x4----2---2-x4--|x2
A|--5-----------0-----------|
E|--------------------------|

e|------------------------------------------------------------------------------|
B|------------------------------------------------------------------------------|
G|-----4------------------------------------------------------------------------|
D|---7---7-x4--2----------------------------------------------------------------|
A|--5----------2----------------------------------------------------------------|
E|-------------0----------------------------------------------------------------|
comments
We did not receive enough feedback on this tab! Please rate:
print report bad tab
1 2 3 4 5
I want to post or [tab]
guest
You may want to rate the tab now too:
select rating
Please do not post tabs as comments. Select "correction" instead!