Oops, an error
Loading. Please wait.

Almost Here Bass Tab

version 1
version 1

Whole song

Interactive

1,841 views 1 this week
2 commentsread comments
1 2 3 4 5
excellent!
x 1
add to favorites
launch autoscroll
font size
0
reset
guitar tuner
Tab Pro tools
  • play this tab
  • loop segment
  • change instrument
  • show fretboard
  • metronome
Autoscroll
slow
fast
+/-
esc
set tempo
stop
Contributor
Difficulty
                       ______________________________
                       \Almost Here - The Academy Is/
                        \__________________________/

Tabbed By: Brian
E-mail: cactaur1993@yahoo.com

Key:
~~~~~ = Let The Note Ring

(Clean Guitar Intro)

G|-------------------------------------------------------------------------|
D|-------------------------------------------------------------------------|
A|----------------------------------------------------------------543------|
E|111-111-111-111-000-000-000-000-111-111-111-111-000-000-000-000----------|


G|-------------------------------------------------------------------------|
D|-------------------------------------------------------------------------|
A|----------------------------------------------------------------543------|
E|111-111-111-111-000-000-000-000-111-111-111-111-000-000-000-000----------|


G|-------------------------------------------------------------------------|
D|-------------------------------------------------------------------------|
A|-------------------------------------------------------------------------|
E|1-1-1-1-0-0-0-0-3-3-3-3-0-0-0-0-1-1-1-1-0-0-0-0-3-3-3-3-0-0-0-0-1~~~~~~--|


G|-------------------------------------------------------------------------|
D|-------------------------------------------------------------------------|
A|----------------------------------------------------------------543------|
E|111-111-111-111-000-000-000-000-111-111-111-111-000-000-000-000----------|


G|-------------------------------------------------------------------------|
D|-------------------------------------------------------------------------|
A|----------------------------------------------------------------543------|
E|111-111-111-111-000-000-000-000-111-111-111-111-000000000000000----------|


G|-------------------------------------------------------------------------|
D|-------------------------------------------------------------------------|
A|-------------------------------------------------------------------------|
E|1-1-1-1-0-0-0-0-3-3-3-3-0-0-0-0-1-1-1-1-0-0-0-0-3-3-3-3-0-0-0-0----------|


G|-------------------------------------------------------------------------|
D|-------------------------------------------------------------------------|
A|-------------------------------------------------------------------------|
E|1-1-1-1-0-0-0-0-3-3-3-3-0-0-0-0-1-1-1-1-0-0-0-0-3-3-3-3-0-0-0-0----------|


G|-------------------------------------------------------------------------|
D|-------------------------------------------------------------------------|
A|------------3~~~~~~~~3~~~~~~~~-------------------------------------------|
E|000-000-000--------------------------------------------------------------|


G|-------------------------------------------------------------------------|
D|-------------------------------------------------------------------------|
A|33--3-11--1-00--0--------33--3-11--1-543-00--0-----------3~~~~~~~~-------|
E|------------------33--3-3-----------------------33333333-----------------|


G|-------------------------------------------------------------------------|
D|-------------------------------------------------------------------------|
A|1111111111111111-0000000000000000----------------------------------------|
E|----------------------------------3333333333333333-----------------------|


G|-------------------------------------------------------------------------|
D|-------------------------------------------------------------------------|
A|3333333333333333-1111111111111111-0000000000000000-----------------------|
E|---------------------------------------------------3333333333333333------|


G|-------------------------------------------------------------------------|
D|-------------------------------------------------------------------------|
A|3333333333333333-1111111111111111-0000000000000000-----------------------|
E|---------------------------------------------------3333333333333333------|


G|-------------------------------------------------------------------------|
D|-------------------------------------------------------------------------|
A|3333333333333333-1111111111111111-0000000000000000-----------------------|
E|---------------------------------------------------3333333333333333-0----|

(Vocals End)

Enjoy the tab! :)
comments
We did not receive enough feedback on this tab! Please rate:
print report bad tab
1 2 3 4 5
2 comments total.
0 reply
LewisMasonx wrote on February 16 2007, 07:13 am

Sounds awesome! Glad someone finally tabbed the remaining songs from Almost Here. 5! ^.^

0 reply
MetalBassist93 wrote on February 16 2007, 03:29 pm

Thanks! :)

I want to post or [tab]
guest
You may want to rate the tab now too:
select rating
Please do not post tabs as comments. Select "correction" instead!