Oops, an error
Loading. Please wait.

Attention Tab

version 2
version 2

Whole song

Interactive

11,539 views 12 this week
7 commentsread comments
1 2 3 4 5
excellent!
x 12
add to favorites
launch autoscroll
font size
0
reset
how to read this tab
guitar tuner
Tab Pro tools
  • play this tab
  • loop segment
  • change instrument
  • show fretboard
  • metronome
×
Best way to learn
"Attention"
Autoscroll
slow
fast
+/-
esc
set tempo
stop
Contributor
Difficulty
novice
-------------------------------------
    Attention - The Academy Is...
-------------------------------------
Tabbed by: maestra
Email: soccerstoolie_lindsayw@hotmail.com

Tuning: Drop D

intro: attention attention...
e|---O-O~---------|
B|---2-2~---------|
G|---2-2~---6~----|
D|---2-2~---x-----|
A|---O-O~---4~----|
D|----------------|

verse 1: this table has taken...
e|------------------------------|
B|------------------------------|
G|------------------------------|
D|---7--------4-------O---------|
A|---7-(x32)--4-(x8)--O-(x8)----|
D|---7--------4-------O---------|
   pm.....................

prechorus: upside down and inside out...
e|---------------------------------------------|
B|---------------------------------------------|
G|---------------------------------------------|
D|---77-77-77-77-77-77-77-77-7~--4-------O~----|
A|---77-77-77-77-77-77-77-77-7~--4-(x8)--O~----|
D|---77-77-77-77-77-77-77-77-7~--4-------O~----|
  pm ..    ..    ..    ..

chorus: attention, attention may I...
e|--------------------------------------|
B|--------------------------------------|
G|--------------------------------------|
D|---7~----O--------4--------O----------|
A|---7~----O-(x16)--4-(x16)--O-(x16)----|
D|---7~----O--------4--------O----------|

     oh did I mention when I see you...
e|--------------------------------------|
B|--------------------------------------|
G|--------------------------------------|
D|---7~----O--------4--------O----------|
A|---7~----O-(x16)--4-(x16)--O-(x16)----|
D|---7~----O--------4--------O----------|

riff between chorus and verse 2
e|-------------|
B|-------------|
G|-------------|
D|---7---------|
A|---7-(x8)----|
D|---7---------|

verse 2: this balance has...
e|--------------------------|
B|--------------------------|
G|--------------------------|
D|---7--------4-------O~----|
A|---7-(x16)--4-(x4)--O~----|
D|---7--------4-------O~----|

prechorus: upside down and inside out...      not like it hurts...
e|-----------------------------------------------------------------|
B|-----------------------------------------------------------------|
G|-----------------------------------------------------------------|
D|---77-77-77-77-77-77-77-77-7~--4-------O-------4-------O~--------|
A|---77-77-77-77-77-77-77-77-7~--4-(x8)--O-(x8)--4-(x8)--O~--------|
D|---77-77-77-77-77-77-77-77-7~--4-------O-------4-------O~--------|
  pm ..    ..    ..    ..

chorus: attention, attention may I...
e|--------------------------------------|
B|--------------------------------------|
G|--------------------------------------|
D|---7~----O--------4--------O----------|
A|---7~----O-(x16)--4-(x16)--O-(x16)----|
D|---7~----O--------4--------O----------|

oh did I mention...something something
e|--------------------------------------|
B|--------------------------------------|
G|--------------------------------------|
D|---7~----O--------2~--4~--7~--O~------|
A|---7~----O-(x16)--2~--4~--7~--O~------|
D|---7~----O--------2~--4~--7~--O~------|

bridge guitar 2
e|-------------------------------------------------|
B|-------------------------------------------------|
G|---9/11-11-11--9/11-11-11\9----------------------|
D|---x-x--x--x---x-x--x--x--x--6/7-7-7--6/7-7-7----| (x2)
A|---7/9--9--9---7/9--9--9-\7----------------------|
D|-------------------------------------------------|

e|------------------------------------|
B|------------------------------------|
G|---9------11-----13------14---------|
D|---x-(x4)-x-(x4)-x--(x4)-x--(x4)----|
A|---7------9------11------12---------|
D|------------------------------------|

bridge guitar 1
e|----------------------------------|
B|----------------------------------|
G|----------------------------------|
D|---O--O-O-O~-------4--4-4---------|
A|---O--O-O-O~-(x2)--4--4-4-(x2)----|
D|---O--O-O-O~-------4--4-4---------|

e|--------------------------------------------|
B|--------------------------------------------|
G|--------------------------------------------|
D|---O--O-O-O~-------4--4-4-4------O----------|
A|---O--O-O-O~-(x2)--4--4-4-4(x2)--O-(x16)----|
D|---O--O-O-O~-------4--4-4-4------O----------|
                            pm
chorus: attention, attention may I...
e|------------------------------|
B|------------------------------|
G|------------------------------|
D|---7-7----4--------O----------|
A|---7-7----4-(x16)--O-(x16)----|
D|---7-7----4--------O----------|

     oh did I mention when I see you...
e|----------------------------------------|
B|----------------------------------------|
G|----------------------------------------|
D|---7-------O--------4--------O----------|
A|---7-(x16)-O-(x16)--4-(x16)--O-(x16)----|
D|---7-------O--------4--------O----------|

ending: attention attention...upside down...
e|------------------------|
B|------------------------|
G|------------------------|
D|---7~---7~---4~---O~----| (x2)
A|---7~---7~---4~---O~----|
D|---7~---7~---4~---O~----|


That's it! I'm pretty sure this is correct,
except for the intro. Any questions,
comments, whatever, email me at
soccerstoolie_lindsayw@hotmail.com
comments
print report bad tab
7 comments total. Showing first comments.
0 reply
Revlin wrote on May 19 2006, 04:02 pm

Very, very nice.

0 reply
SpAzTiC_oVr_FoB wrote on August 12 2006, 09:34 pm

yay! i'm so happy someone has finally taken the time to tab this out! i'm to lazy and deaf to do it. = )
GREAT WORK

0 reply
shugo449 wrote on September 5 2006, 05:43 pm

real good tab5*

I want to post or [tab]
guest
You may want to rate the tab now too:
select rating
Please do not post tabs as comments. Select "correction" instead!