Oops, an error
Loading. Please wait.

Automatic Eyes Tab

version 1
version 1

Whole song

Interactive

4,212 views 3 this week
1 commentread comment
1 2 3 4 5
excellent!
x 3
add to favorites
launch autoscroll
font size
0
reset
how to read this tab
guitar tuner
Tab Pro tools
  • play this tab
  • loop segment
  • change instrument
  • show fretboard
  • metronome
Autoscroll
slow
fast
+/-
esc
set tempo
stop
Contributor
The Academy Is... - Automatic Eyes

Intro:

guitar 1:
e|-5(16x)-4(16x)-5(16x)-4(16x)--5~~--|
B|-----------------------------------|
G|-----------------------------------|
D|-----------------------------------|
A|-----------------------------------|
E|-----------------------------------|

guitar 2:
e|------------------------------------------------|
B|------------------------------------------------|
G|------------------------------------------------|
D|------------------------------------------------| 2x
A|-7--4--7-7---7--4--7-7---7--4--7-7---7--4--7-7--|
E|5-5-----5---5-5-----5---4-4-----4---4-4-----4---|


Verse:

e|-----------------------------------|
B|-----------------------------------|
G|-----------------------------------|
D|-----------------------------------| 2x
A|--7-7-7-7-7-7-7-7-7-7-7-7-7-7-7-7--|
E|-5-5-5-5-5-5-5-5-4-4-4-4-4-4-4-4---|
PM ********************************

Pre-chorus:

e|--------------------------------------------|
B|--------------------------------------------|
G|--------------------6-----------------------|
D|--7-4---7-4---7-4--7--4----7-4---7-4---7-4--|
A|-5-----7-----9------------5-----7-----9-----|
E|--------------------------------------------|


Chorus:

e|------------------------------------|
B|------------------------------------|
G|-22222222----------4444444444444444-|
D|-22222222-22222222-4444444444444444-|
A|-00000000-22222222-2222222222222222-|
E|----------00000000------------------|

e|------------------------------------|
B|------------------------------------|
G|-22222222----------4444444444444444-|
D|-22222222-22222222-4444444444444444-|
A|-00000000-22222222-2222222222222222-|
E|----------00000000------------------|

e|------------------------------------|
B|------------------------------------|
G|-------------------4444444444444444-|
D|-44444444-22222222-4444444444444444-|
A|-44444444-22222222-2222222222222222-|
E|-22222222-00000000------------------|

e|------------------------------------|
B|------------------------------------|
G|-22222222----------4444444444444444-|
D|-22222222-22222222-4444444444444444-|
A|-00000000-22222222-2222222222222222-|
E|----------00000000------------------|


Pre-verse:

guitar 1:
e|-----------------|
B|-----------------|
G|--(6)~~~~~~~~----|
D|-----------------|
A|-----------------|
E|-----------------|

guitar 2:
e|------------------------------------------------|
B|------------------------------------------------|
G|------------------------------------------------|
D|------------------------------------------------|
A|-7--4--7-7---7--4--7-7---7--4--7-7---7--4--7-7--|
E|5-5-----5---5-5-----5---4-4-----4---4-4-----4---|


then play the INTRO again once


Verse2:
same as verse 1


Pre-chorus:

guitar 1:
tremolo picking, not exactly that number of strums
e|-------------------------------------------------|
B|-------------------------------------------------|
G|-------------------------------------------------|
D|--------------------777777-----------------------|
A|-5555555777777999999--------5555555777777999999--|
E|-------------------------------------------------|

guitar 2:
e|--------------------------------------------|
B|--------------------------------------------|
G|--------------------6-----------------------|
D|--7-4---7-4---7-4--7--4----7-4---7-4---7-4--|
A|-5-----7-----9------------5-----7-----9-----|
E|--------------------------------------------|


Chorus 2:
Same as chorus 1


Solo:

guitar 1:
e|-------9--------7--7/10-10-1010-9----|
B|----------------------------------10-|
G|-9-7-9----9-7-9----------------------|
D|-------------------------------------|
A|-------------------------------------|
E|-------------------------------------|

e|-------9--------7--7/10-10-1010-9-12-|
B|-------------------------------------|
G|-9-7-9----9-7-9----------------------|
D|-------------------------------------|
A|-------------------------------------|
E|-------------------------------------|

e|-------------------------------------|
B|-10-9-7-5-7-5---5--------------------|
G|--------------6----4-2-4-6-7-6-4-2---|
D|-------------------------------------|
A|-------------------------------------|
E|-------------------------------------|

e|-------------------------------------|
B|-10-9p7---7--------------------------|
G|--------9---9-7-6-9-7p6--------------|
D|------------------------9-7-6-4-6/2--|
A|-------------------------------------|
E|-------------------------------------|

e|------------------------------9~~----|
B|---------------------10b-9---9-------|
G|-22224444666677779999------9---------|
D|-------------------------------------|
A|-------------------------------------|
E|-------------------------------------|
   ^^^^^^^^^^^^^^^^^^^^
     tremolo picking


guitar 2:
play the chorus again


Last Chorus:
Part 1:

Guitar 3 (Acoustic Guitar):
e|-0--0--0--0----0--0--0--0~-|
B|-0--0--0--0----0--0--0--0~-|
G|-6--1--7--7----6--1--7--7~-|
D|-7--2--9--9----7--2--9--9~-|
A|-7--2--9--9----7--2--9--9~-|
E|-0--0--0--0----0--0--0--0~-|

Guitar 2:

e|--------------------------------|
B|--------------------------------|
G|--------------------------------|
D|---7-------6-------9-------9----|
A|--7--7----7--7----9--9----9--9--|
E|-5----5--0----0--7----7--7----7-|

e|--------------------------------|
B|--------------------------------|
G|--------------------------------|
D|---7-------6-------9------------|
A|--7--7----7--7----9--9----------|
E|-5----5--0----0--7----7~~-------|


Part 2:

e|------------------------------------|
B|------------------------------------|
G|-------------------4444444444444444-|
D|-44444444-22222222-4444444444444444-|
A|-44444444-22222222-2222222222222222-|
E|-22222222-00000000------------------|

e|------------------------------------|
B|------------------------------------|
G|-22222222----------4444444444444444-|
D|-22222222-22222222-4444444444444444-|
A|-00000000-22222222-2222222222222222-|
E|----------00000000------------------|



Part 3:

Guitar 2:
e|------------------------------------|
B|------------------------------------|
G|-22222222----------4444444444444444-|
D|-22222222-22222222-4444444444444444-| 4x
A|-00000000-22222222-2222222222222222-|
E|----------00000000------------------|

Guitar 1:
e|-------------------------------------|
B|-10-9-7-5-7-5---5--------------------|
G|--------------6----4-2-4-6-7-6-4-2---|
D|-------------------------------------| 4X
A|-------------------------------------|
E|-------------------------------------|


End:

   A     E     Bm
e|-0~~---0~~---2~~---|
B|-2~~---0~~---3~~---|
G|-2~~---1~~---4~~---|
D|-2~~---2~~---4~~---|
A|-0~~---2~~---2~~---|
E|-------0~~---------|

comments
We did not receive enough feedback on this tab! Please rate:
print report bad tab
1 2 3 4 5
1 comment total.
0 reply
grapefruit7 wrote on November 9 2015, 10:18 pm

1337 tab m8

I want to post or [tab]
guest
You may want to rate the tab now too:
select rating
Please do not post tabs as comments. Select "correction" instead!