Oops, an error
Loading. Please wait.

Beware Cougar Chords

version 2
version 2

Whole song

Interactive

1,337 views 1 this week
no commentswrite comment
1 2 3 4 5
please rate
add to favorites
launch autoscroll
font size
0
reset
transpose
0
reset
display chords
guitar tuner
Tab Pro tools
  • play this tab
  • loop segment
  • change instrument
  • show fretboard
  • metronome
×
Best way to learn
"Beware Cougar"
Autoscroll
slow
fast
+/-
esc
set tempo
stop
Artist: The Academy Is…
Album: Fast Times At Barrington High
Song: Beware Cougar
Tabbed by:
Tuning: Regular


Intro.
e|-------------------------------------------------------------------------|
B|---10-8-7-----2-3-5-----10-8-7-----3-5-2---------------------------------|
G|-------------------------------------------------------------------------|
D|-------------------------------------------------------------------------|
A|-------------------------------------------------------------------------|
E|-------------------------------------------------------------------------|


       A		  
When I met you, you were on your back.
A				      D
We still spend most afternoons like that,
            A
but not for long.
  A
I find myself enjoying you,
        A
but you play these reckless games
             D
you’ll never lose
               A
as long as I’m around.


Chorus.

               D
Do you want to tie me up?
       G
Do you want to tie me down?
            D
Go ahead and do it now.

   D					             G  A
So far, so good, let it roll, let it ride, ride.
   D						      A
So far, so good, let us fall, let us fight, fight.
        G          A
It’s no fun on the sidelines.

   A
We both know I’m too young for you,
             A
and when you fake a laugh behind the wheel,
  D				    A
I know where this road is heading to.
       A
With a sunken lie I lay in bed,
    A
But I will live to be twenty-three.
    D 			A
And you’ll see just how clever I can be…


Chorus, Then…

e|---------------------------------------------------14/15-14-12--9--------|
B|-11b12-12---------11b12-12---------11b12-12-16-10------------------------|
G|----------9-7--------------9-7-------------------------------------------|
D|-------------------------------------------------------------------------|
A|-------------------------------------------------------------------------|
E|-------------------------------------------------------------------------|


A   D   A   D      A  D
Driving backwards, wasting time.
A     D       A   D        A     D
Young love is ruthless, so learn to fly.
D
You taught me things I can’t forget.
A
Positions that I don’t regret.
  G			  
I can’t walk away, and I can’t shake the taste.


Chorus.

		D
Do you want to tie me up?
        G
Do you want to tie me down?
            D
Go ahead and do it now.


   D					             G  A
So far, so good, let it roll, let it ride, ride.
   D						      A
So far, so good, let us fall, let us fight, fight.
        G          A
It’s no fun on the sidelines.


e|------------------------------------------------------------------------|
B|---10-8-7-----2-3-5-----10-8-7-----3-5-2--------------------------------|
G|------------------------------------------------------------------------|
D|------------------------------------------------------------------------| 
A|------------------------------------------------------------------------|
E|------------------------------------------------------------------------|



*It's no fun on the sidelines.

 No

 Don’t write a word, 'cause I won’t reply.


*All played during riff.


End on D.


/: Slide up  
b: Bend string up
comments
We did not receive enough feedback on this tab! Please rate:
print report bad tab
1 2 3 4 5
I want to post or [tab]
guest
You may want to rate the tab now too:
select rating
Please do not post tabs as comments. Select "correction" instead!