Oops, an error
Loading. Please wait.

Bulls In Brooklyn Bass Tab

664 views 1 this week
no commentswrite comment
1 2 3 4 5
please rate
add to favorites
launch autoscroll
font size
0
reset
guitar tuner
Tab Pro tools
  • play this tab
  • loop segment
  • change instrument
  • show fretboard
  • metronome
×
Best way to learn
"Bulls In Brooklyn"
Autoscroll
slow
fast
+/-
esc
set tempo
stop
Contributor
-------------------------------------------------------------------------------
		    Bulls in Brooklyn - The Academy Is
-------------------------------------------------------------------------------

Tabbed By : steveprudden

Tuning: Standard

If you're having any trouble working any of it out, there is a video of me 
playing it here - http://www.youtube.com/watch?v=JoYyldPrsAE

Verse (0:08 & 1:08)
Repeat x20
G|---------------------------------------------------------------------------|
D|--------6------------------------------------------------------------------|
A|----------7----------------------------------------------------------------|
E|-5h7-9---------------------------------------------------------------------|


Chorus (0:47, 1:23 & 2:16)
Repeat x2
G|---------------------------------------------------------------------------|
D|---------------------------------------------------------------------------|
A|---------------------------------------------------------------------------|
E|-5h7-9--4-4-0--7-7-9--4-4-0--7-7-9--4-4-0--7-7-9--4-4-0--------------------|

  Only play the first hammer on part when going in to the chorus then 
  continue the pattern


Post Chorus (1:01, 1:39 & 2:46)
Play once
G|---------------------------------------------------------------------------|
D|---------------------------------------------------------------------------|
A|---------------------------------------------------------------------------|
E|-7-7-5--5-5--5-5--5-5--5-5--5-5--5-5--5-5--2--2-2--2-2--2-2--2-2--2-2--2-2-|

  Again, only play those first two notes when going in too the post chorus,
  when it is repeated go straight in to playing on the fifth fret.


Bridge (1:46)
Play once
G|---------------------------------------------------------------------------|
D|---------------------------------------------------------------------------|
A|-12-12-12-12-12-12-12-12h14p12-7-7-7-7-7-7-7-7/11-12-12-12-12-11-12-12-12--|
E|---------------------------------------------------------------------------|

G|---------------------------------------------------------------------------|
D|---------------------------------------------------------------------------|
A|-12-14-16-16-16-16\-9-9-11-11-12-12-12-12-11-12-12-12-12h14p12-7-7-7-7-7-7-|
E|---------------------------------------------------------------------------|

G|---------------------------------------------------------------------------|
D|-/14-14-14-14-14-14--------------------------------------------------------|
A|--------------------12-12-12-12-11-12-12-12-12h14-16-16-16-16-16-16-16-16--|
E|---------------------------------------------------------------------------|

G|---------------------------------------------------------------------------|
D|---------------------------------------------------------------------------|
A|-16-16-16-19-19-19-19-19-19-19\--------------------------------------------|
E|---------------------------------------------------------------------------|

Done!

===============================================================================
| /  slide up
| \  slide down
| h  hammer-on
| p  pull-off
| ~  vibrato
| +  harmonic
| x  Mute note
===============================================================================
comments
We did not receive enough feedback on this tab! Please rate:
print report bad tab
1 2 3 4 5
I want to post or [tab]
guest
You may want to rate the tab now too:
select rating
Please do not post tabs as comments. Select "correction" instead!