Oops, an error
Loading. Please wait.

Bulls In Brooklyn Tab

version 2
version 2

Whole song

339 views 1 this week
no commentswrite comment
1 2 3 4 5
please rate
add to favorites
launch autoscroll
font size
0
reset
how to read this tab
guitar tuner
Tab Pro tools
  • play this tab
  • loop segment
  • change instrument
  • show fretboard
  • metronome
Autoscroll
slow
fast
+/-
esc
set tempo
stop
Contributor
-------------------------------------------------------------------------------
                   Bulls in Brooklyn - The Academy Is...
-------------------------------------------------------------------------------
Tabbed by: steveprudden
Email:

Tuning: Drop D

Verse (small guitar part at 0:24, 0:39, 1:16 & 3:21)
Guitar 2 (Chizzy):
e|---------------------------------------------------------------------------|
B|--------12~----------------------------------------------------------------|
G|-----9---------------------------------------------------------------------|
D|-11------------------------------------------------------------------------|
A|---------------------------------------------------------------------------|
D|---------------------------------------------------------------------------|

Chorus (0:47, 1:23 & 2:16)
Guitar 1 & 2
Repeat x8
e|---------------------------------------------------------------------------|
B|---------------------------------------------------------------------------|
G|---------------------------------------------------------------------------|
D|-11-\-6-\-2-/-9------------------------------------------------------------|
A|-11-\-6-\-2-/-9------------------------------------------------------------|
D|-11-\-6-\-2-/-9------------------------------------------------------------|

Post Chorus (1:01, 1:39 & 2:46)
Guitar 1 (Carden):
Play once
e|---------------------------------------------------------------------------|
B|---------------------------------------------------------------------------|
G|---------------------------------------------------------------------------|
D|-7--7-7--7-7--7-7--7-7--7-7--7-7--7-7--4--4-4--4-4--4-4--4-4--4-4--4-4--4-4|
A|-7--7-7--7-7--7-7--7-7--7-7--7-7--7-7--4--4-4--4-4--4-4--4-4--4-4--4-4--4-4|
D|-7--7-7--7-7--7-7--7-7--7-7--7-7--7-7--4--4-4--4-4--4-4--4-4--4-4--4-4--4-4|

Guitar 2 (Chizzy)
e|---------------------------------------------------------------------------|
B|----------------------------------------------------------12-14------------|
G|------13--13-14-------13--13-14-------13--13-14-------13-------13\---------|
D|-11-11--11-------11-11--11-------11-11--11-------11-11--11-----------------|
A|---------------------------------------------------------------------------|
D|---------------------------------------------------------------------------|
  On the second post chorus you don't play that last note
  And on the third one the you play the last 'phrase' the same as the others

Bridge (Piano part at 1:45)
Guitar 2 (Chizzy)
Repeat x7
e|--------------------------------------------------------------------------|
B|----------------------9---------------------------------------------------|
G|------9-------11---------------11-----------------------------------------|
D|-9-11----9-11----9-11-----9-11--------------------------------------------|
A|--------------------------------------------------------------------------|
D|--------------------------------------------------------------------------|

Outro (3:01)
Same as the chorus but Guitar 2 plays this rather than the last chord
e|--------------------------------------------------------------------------|
B|--14\---------------------------------------------------------------------|
G|--------------------------------------------------------------------------|
D|--------------------------------------------------------------------------|
A|--------------------------------------------------------------------------|
D|--------------------------------------------------------------------------|

All done!

===============================================================================
| /  slide up
| \  slide down
| h  hammer-on
| p  pull-off
| ~  vibrato
| +  harmonic
| x  Mute note
===============================================================================
comments
We did not receive enough feedback on this tab! Please rate:
print report bad tab
1 2 3 4 5
I want to post or [tab]
guest
You may want to rate the tab now too:
select rating
Please do not post tabs as comments. Select "correction" instead!