Oops, an error
Loading. Please wait.

Checkmarks Bass Tab

version 2
version 2

Whole song

334 views 1 this week
no commentswrite comment
1 2 3 4 5
please rate
add to favorites
launch autoscroll
font size
0
reset
guitar tuner
Tab Pro tools
  • play this tab
  • loop segment
  • change instrument
  • show fretboard
  • metronome
×
Best way to learn
"Checkmarks"
Autoscroll
slow
fast
+/-
esc
set tempo
stop
Contributor
Difficulty
Tuning
novice
D A D G B E
Band: The Academy Is...
Song: Checkmarks
Album: Almost Here
Tabbed by: choke383
Drop D Tuning: GDAD


0:11
G|---------|
D|---------|
A|---5\----|
D|---------|

G|--------------------------------------|
D|--------------------------------------|
A|0--0--020----------0--0--020-3-3-5-5--|
D|----------3-3-5-5---------------------|x2


0:24
G|-------------------------------------------|
D|-------------------------------------------|
A|-0--------0--------0--------0--------------|
D|---------------------------------55555555--|

0:36
G|---------------------------------------------------------|-----\
D|---------------------------------------------------------|      \
A|---------------------------------------------------------|       \
D|-7-7-0--7-7-0----7-7-0--5-5-5-5-5-5-5-5-3-3-3-3-3-3-3-3--|        \
                                                                     x2
G|---------------------------------------------------------|        /
D|---------------------------------------------------------|       /
A|------------------------3-3-3-3-3-3-3-3------------------|      /
D|-7-7-0--7-7-0----7-7-0------------------3-3-3-3-3-3-3-3--|-----/


1:00
G|--------------------------------------|
D|--------------------------------------|
A|0--0--020----------0--0--020-3-3-5-5--|
D|----------3-3-5-5---------------------|

G|---------|
D|---------|
A|---------|
D|7--7~----|


1:16
G|-------------------------------------------------------|
D|-------------------------------------------------------|
A|-10\3-3-3-3-5-5-5--------------------------------------|
D|------------------7-7-7777-7-7-7777-7-7-7777-7-7-7777--|


1:24
G|-------------------------------|
D|-------------------------------|
A|-------------------------------|
D|7--7~---------7-7-7-7-5-5-5-5--|


1:30
G|---------------------------------------------------------|-----\
D|---------------------------------------------------------|      \
A|---------------------------------------------------------|       \
D|-7-7-0--7-7-0----7-7-0--5-5-5-5-5-5-5-5-3-3-3-3-3-3-3-3--|        \
                                                                     x2
G|---------------------------------------------------------|        /
D|---------------------------------------------------------|       /
A|------------------------3-3-3-3-3-3-3-3------------------|      /
D|-7-7-0--7-7-0----7-7-0------------------3-3-3-3-3-3-3-3--|-----/


1:54
G|--------------------------------------|
D|--------------------------------------|
A|0--0--020----------0--0--020-3-3-5-5--|
D|----------3-3-5-5---------------------|

G|----------------------|
D|----------------------|
A|0--0--020-------------|
D|----------3-3-5-5--3--|


2:06
G|-----------------------------------------------------------------|
D|-----------------------------------------------------------------|
A|000-000-000-000-333-333-333-333----------------------------------|
D|--------------------------------555-555-555-555-333-333-333-333--|

G|------------------------------------------------------------|
D|------------------------------------------------------------|
A|000-000-000-000-333-333-333-333-----------------------------|
D|--------------------------------555-555-555-555-2/33-333-5--|


2:30
G|---------------------------------------------------------|-----\
D|---------------------------------------------------------|      \
A|---------------------------------------------------------|       \
D|-7-7-0--7-7-0----7-7-0--5-5-5-5-5-5-5-5-3-3-3-3-3-3-3-3--|        \
                                                                     x2
G|---------------------------------------------------------|        /
D|---------------------------------------------------------|       /
A|------------------------3-3-3-3-3-3-3-3------------------|      /
D|-7-7-0--7-7-0----7-7-0------------------3-3-3-3-3-3-3-3--|-----/

G|----------------------------|
D|----------------------------|
A|----------------------------|
D|-7-7-7-7-7-7-7-7-7-7-7-7-7--|




Any comments, questions or jokes send to style444@hotmail.com
comments
We did not receive enough feedback on this tab! Please rate:
print report bad tab
1 2 3 4 5
I want to post or [tab]
guest
You may want to rate the tab now too:
select rating
Please do not post tabs as comments. Select "correction" instead!