Oops, an error
Loading. Please wait.

Classifieds Tab

version 2
version 2

Whole song

Interactive

565 views 1 this week
no commentswrite comment
1 2 3 4 5
please rate
add to favorites
launch autoscroll
font size
0
reset
how to read this tab
guitar tuner
Tab Pro tools
  • play this tab
  • loop segment
  • change instrument
  • show fretboard
  • metronome
×
Best way to learn
"Classifieds"
Autoscroll
slow
fast
+/-
esc
set tempo
stop
Contributor
Difficulty
intermediate
So, here is my first shot at this.  It's pretty accurate, I got it from the live acoustic version.

CLASSIFIEDs

VERSE 1
My life reads like the classifieds, Pages for whats for sale, what's on the auction block?
Attention bidders, its Lot 45, He's got a decent voice, he's got that crooked smile.

Hold on, you haven't heard the best yet...He writes good storylines, he's got those honest eyes.
So, take him home for just $9.95, he'll sing the songs you like, he'll keep you warm at night (at
e---0----1----|
b---1----1----|
g---0----2----|
d---2----3----|
a---3----3----|
E---0----1----|   x2

night)

e---0-----0-----|
b---1-----1-----|
g---0-----0-----|
d---2-----3-----|
a---3-----3-----|
E---0--x8-0--x8-|   x2


CHORUS
Back down, cash out, that's the city for ya.
Break down and back out, and get what's coming to you.

e---0------0-----|
b---1------1-----|
g---0------0-----|
d---2------3-----|
a---3------3-----|
E---0--x12-0--x4-|   x2

When you said you were falling apart.
I thought you meant that you were falling apart.

e---0------0----|
b---1------1----|
g---0------0----|
d---2------3----|
a---0------0----|
E---0--x12-0-x4-|   x2

Ohh oh...

e---0---|
b---1---|
g---0---|
d---2---|
a---0---|
E---0---|x2

VERSE 2
I'm not the type to forget about nights like this,
when every single move that I make is documented and scored for style points.

e---0-----1-----5-----|
b---1-----1-----5-----|
g---0-----2-----6-----|
d---2-----3-----7-----|
a---3-----3-----7-----|
E---0-x2--1-x2--5-x2--|  (play these chords fast)

The once ambitious one, now holds a smoking gun.


e---3-----|
b---3-----|
g---4-----|
d---5-----|
a---5-----|
E---3-x16-|

And if I die in my sleep, are you still willing to be everything you promised you would be?

e---0------0----|
b---1------1----|
g---0------0----|
d---2------3----|
a---0------0----|
E---0--x12-0-x4-|   x2

CHORUS

BRIDGE

e---0--|
b---1--|
g---0--|
d---2--|
a---0--|
E---0--|

Will you be the first one to tell the neigborhood papers,
and all my family and friends that still care.

Did you buy what I sold and did you feel what I told you,
I hope that you still do, will you?

e---1-----3-----5-----8---------|
b---1-----3-----5-----8---------|
g---2-----4-----5-----8---------|
d---3-----5-----7-----10--------|
a---3-----5-----7-----10--------|
E---1-x8--3-x8--5-x8--8---x8----|  x2

Promise yourself, that this isn't all we've got...

e---1-----|
b---1-----|
g---2-----|
d---3-----|
a---3-----|
E---1-x13-|

CHORUS x2
comments
We did not receive enough feedback on this tab! Please rate:
print report bad tab
1 2 3 4 5
I want to post or [tab]
guest
You may want to rate the tab now too:
select rating
Please do not post tabs as comments. Select "correction" instead!