Oops, an error
Loading. Please wait.

Crowded Room Tab

2,672 views 1 this week
no commentswrite comment
1 2 3 4 5
excellent!
x 4
add to favorites
launch autoscroll
font size
0
reset
how to read this tab
guitar tuner
Tab Pro tools
  • play this tab
  • loop segment
  • change instrument
  • show fretboard
  • metronome
Autoscroll
slow
fast
+/-
esc
set tempo
stop
Contributor
Difficulty
intermediate
this is my first tab. i'm sorry if it's not 100% accurate. i think it's pretty good though. 
x = palm muting

intro guitar 1:

e|---------------------------------------------------------------------------|
B|---------------------------------------------------------------------------|
G|---------------------------------------------------------------------------|
D|-55555555-7777-2222-4444444444444444---------------------------------------|
A|-55555555-7777-2222-4444444444444444---------------------------------------|
E|-33333333-5555-0000-2222222222222222---------------------------------------|
play this twice

intro guitar 2:

e|-----------------------------7-7-7-7-10-10-10-10-10-10-10-10-10-12-12-10-10-12-12-10--|
B|-8-8-8-8-8-8-8-8-10-10-10-10----------------------------------------------------------|
G|--------------------------------------------------------------------------------------|
D|--------------------------------------------------------------------------------------|
A|--------------------------------------------------------------------------------------|
E|--------------------------------------------------------------------------------------|
play this twice

verse 1 (save you from yourself...):

e|---------------------------------------------------------------------------|
B|---------------------------------------------------------------------------|
G|------------------77777777-99999999----------------------------------------|
D|-5555555555555555-77777777-99999999----------------------------------------|
A|-5555555555555555-55555555-77777777----------------------------------------|
E|-3333333333333333----------------------------------------------------------|
   xxxxxxxxxxxxxxxx xxxxxxxx xxxxxxxx
play this 4 times

section where it is only guitar playing:

e|-14-14-14-------------------15-15-15---------------------------------------|
B|----------15-15-15-------------------15-15---------------------------------|
G|-------------------14-14-14----------------14------------------------------|
D|---------------------------------------------------------------------------|
A|---------------------------------------------------------------------------|
E|---------------------------------------------------------------------------|

prechorus (you've got a problem here...):

guitar 1
e|---------------------------------------------------------------------------|
B|---------------------------------------------------------------------------|
G|---------------------------------------------------------------------------|
D|-55555555-7777-2222-4444444444444444-55555555-7777-2222-444444444444-------|
A|-55555555-7777-2222-4444444444444444-55555555-7777-2222-444444444444-------|
E|-33333333-5555-0000-2222222222222222-33333333-5555-0000-222222222222-------|

prechorus guitar 2:
e|-----------------------------7-7-7-7-10-10-10-10-10-10-10-10-10-12-12-10-10-12-12-10--|
B|-8-8-8-8-8-8-8-8-10-10-10-10----------------------------------------------------------|
G|--------------------------------------------------------------------------------------|
D|--------------------------------------------------------------------------------------|
A|--------------------------------------------------------------------------------------|
E|--------------------------------------------------------------------------------------|

e|-----------------------------7-7-7-7-10-10-10-10-10-10-10-10-10-10-10-10--|
B|-8-8-8-8-8-8-8-8-10-10-10-10----------------------------------------------|
G|--------------------------------------------------------------------------|
D|--------------------------------------------------------------------------|
A|--------------------------------------------------------------------------|
E|--------------------------------------------------------------------------|

chorus (this won't take long...):

e|---------------------------------------------------------------------------|
B|---------------------------------------------------------------------------|
G|-55555555-77777777-99999999-1212121212121212-------------------------------|
D|-55555555-77777777-99999999-1212121212121212-------------------------------|
A|-33333333-55555555-77777777-1010101010101010-------------------------------|
E|---------------------------------------------------------------------------|
play this twice

verse 2 (spare us your excuse)-- same as verse 1

section where only guitar is playing-- same as before

prechorus (you've got a problem here)-- same as before

chorus (this won't take long)-- same as before except play the entire thing twice

part where he repeatedly sings "last time you will shine":

guitar 1
e|---------------------------------------------------------------------------|
B|---------------------------------------------------------------------------|
G|-55555555555555555555555555555555-44444444444444444444444444444444---------|
D|-55555555555555555555555555555555-55555555555555555555555555555555---------|
A|-33333333333333333333333333333333-22222222222222222222222222222222---------|
E|---------------------------------------------------------------------------|

e|---------------------------------------------------------------------------|
B|---------------------------------------------------------------------------|
G|---------------------------------------------------------------------------|
D|-77777777777777777777777777777777-5555555555555555-2222222222222222--------|
A|-77777777777777777777777777777777-5555555555555555-2222222222222222--------|
E|-55555555555555555555555555555555-3333333333333333-0000000000000000--------|

guitar 2
e|---------------------------------------------------------------------------|
B|-----8-6-5-------8-6-5-------8-6-5-------8-6-5-------8-6-5-------8-6-5-----|
G|-4-5-------5-4-5-------5-4-5-------5-4-5-------5-4-5-------5-4-5-----------|
D|---------------------------------------------------------------------------|
A|---------------------------------------------------------------------------|
E|---------------------------------------------------------------------------|

e|---------------------------------------------------------------------------|
B|---------------5-5-5-6-6-6-5-5-5-------------------------------------------|
G|-5-4-5-7-4-5-7-------------------7-7-7-------------------------------------|
D|---------------------------------------------------------------------------|
A|---------------------------------------------------------------------------|
E|---------------------------------------------------------------------------|

chorus (this won't take long)-- same as before except play the entire thing twice


comments
print report bad tab
I want to post or [tab]
guest
You may want to rate the tab now too:
select rating
Please do not post tabs as comments. Select "correction" instead!