Oops, an error
Loading. Please wait.

Days Like Masquerades tab

version 3
version 3

Whole song

43 views 1 this week
no commentswrite comment
1 2 3 4 5
3 more votes to show rating
add to favorites
×
Save as Personal and add changes to this tab that will be seen only by you. Learn more ›
×
You can save this tab as Personal to edit and correct it or add notes. All changes will be seen only by you. Learn more »
launch autoscroll
font size
0
reset
how to read this tab
guitar tuner
edit
Autoscroll
slow
fast
+/-
esc
set tempo
stop
Author
Difficulty
-------------------------------------------------------------------------------
                             Days like masquerades - The academy is...
-------------------------------------------------------------------------------
Tabbed by: Grapefruit7

Tuning: Standard (EADGBe)

Intro Lead

e|----------------------------------|
B|-10--8-8---10--8--7---8-8---------|
G|-x---x-x---x---x--x---x-x---------|
D|-5---5-5---5---5--5---5-5---------|  X4
A|----------------------------------|
E|----------------------------------|

Intro Chords

      Em5       C5              G5                       Em5      C5 
e|------------------------------------------------------------------------------|
B|------------------------------------------------------------------------------|
G|--------------5--5--5--5-5---------------------------------------5--5--5--5-5-|
D|----2--2-2----5--5--5--5-5----5--5-5---5--5--5--5-5----2--2-2----5--5--5--5-5-|
A|----2--2-2----3--3--3--3-3----5--5-5---5--5--5--5-5----2--2-2----3--3--3--3-3-|
E|----0--0-0--------------------3--3-3---3--3--3--3-3----0--0-0-----------------|

Verse (Rhythm not shown)

      G        Em       C 
     
e|----3--------0--------3------------|
B|----3--------0--------5------------|
G|----4--------0--------5------------|
D|----5--------2--------5------------| X4
A|---(5)------(2)------(3)-----------|
E|---(3)------(0)--------------------|

Chorus (Rhythm not shown)


     G5     D5     Em5    C5
e|----------------------------|
B|----------------------------|
G|----------7-------------5---|
D|---5------7------2------5---|
A|---5------5------2------3---|
E|---3-------------0----------|

     G5     D5     B5     C5
e|----------------------------|
B|----------------------------|
G|----------7------4------5---|
D|---5------7------4------5---|
A|---5------5------2------3---|
E|---3------------------------|

Chorus pt.II

    G5     D5/F#   Em5    C5
(but your always...)
e|----------------------------|
B|----------------------------|
G|------------------------5---|
D|---5------4------2------5---|
A|---5------5------2------3---| X2
E|---3------2------0----------|

Bridge (Rhythm not shown)


     D5     Em5     G5     C5
e|----------------------------|
B|----------------------------|
G|---7------9------12---------|
D|---7------9------12-----10--|  \
A|---5------7------10-----10--|   \
E|------------------------8---|    \
                                    \ X2
     D5     Em5    C       C        / 
e|----------------------------|    /
B|----------------------------|   /
G|---7------9-----------------|  /
D|---7------9------10---------|
A|---5------7------10---------|
E|-----------------8----------|

Song Order
Intro riff/chords X1
Verse X1
Chorus X1
Chorus pt.II X1
Intro riff/chords X1
Verse X1
Chorus X1
Chorus pt.II X1
Bridge X1
Chorus pt.II X1
Chorus X2
Intro riff/chords X1


************************************

| /   slide up
| \   slide down
| h   hammer-on
| p   pull-off
| ~   vibrato
| +   harmonic
| x   Mute note
| b   Bend
| pb  Pre-bend
| br  Bend release
| pbr Pre-bend release
| brb Bend release bend

************************************
Suggest correction
Creating personal tab
Creating personal tab
You can edit any tab online and save it as your Personal.

You can edit, replace or remove any tab part or add personal notes – all changes will be seen only by you.

Personal tabs can be accessed anytime from any device, even offline.
Learn more »
Give kudos to tab author, rate the tab!
1 2 3 4 5
comments
print report bad tab
guest
You may want to rate the tab now too:
select rating
Wanna post a correction for this tab? Suggest correction