Oops, an error
Loading. Please wait.

Down And Out Bass Tab

version 1
version 1

Whole song

Interactive

1,009 views 1 this week
no commentswrite comment
1 2 3 4 5
please rate
add to favorites
launch autoscroll
font size
0
reset
guitar tuner
Tab Pro tools
  • play this tab
  • loop segment
  • change instrument
  • show fretboard
  • metronome
×
Best way to learn
"Down And Out"
Autoscroll
slow
fast
+/-
esc
set tempo
stop
Contributor
Difficulty
Tuning
novice
D A D G B E
Band: The Academy Is...
Song: Down And Out
Album: Almost Here
Tabbed by: choke383
Drop D Tuning: GDAD


1:40
G|-----------------------------------|
D|-----------------------------------|
A|-----------------------------------|
D|-2-2-2-2-2-2-2-2-2-2-2-2-2-x-2-x---|


1:44
G|-----------------------------------------------------------------------------|
D|-----------------------------------------------------------------------------|
A|----------0-0-0000----------0-0-0000----------0-0-0000----------0-0-0000-----|
D|-0-0-0000----------4-4-4444----------0-0-0000----------4-4-4444----------2~--|


2:03
G|--------|
D|--------|
A|----0~--|
D|-2------|


2:17
G|------------|
D|------------|
A|--4--4-0-0--|
D|------------|


2:27
G|------------------------------------------------------------|
D|-----3333------------3333------------3333-------------------|
A|-0000----555544440000----555544440000----55554444000000000--|
D|------------------------------------------------------------|


2:43
G|-----------------------------------------------------------------------------|
D|-----------------------------------------------------------------------------|
A|----------0-0-0000----------0-0-0000----------0-0-0000----------0-0-0000-----|
D|-0-0-0000----------4-4-4444----------0-0-0000----------4-4-4444----------2~--|


3:00
G|----------------------------------|
D|----------------------------------|
A|----------------------------------|
D|-5-5-5-5-5-5-5-5-5-5-5-5-5-5-5-5--|


3:05
G|---------------------------------------------|
D|---------------------------------------------|
A|-----------0-0-000000-2-2-222222-------------|
D|4-4-444444-----------------------5-5-555555--|x3

G|------------------------------------|
D|------------------------------------|
A|-----------0000000000-2222222222----|
D|4-4-444444-----------------------5--|


3:40
G|--------------------------------------|
D|--------------------------------------|
A|----------0-0-0000----------0-0-0000--|
D|-0-0-0000----------4-4-4444-----------|x3

G|----------------------------------------|
D|----------------------------------------|
A|----------0-0-0000----------0-0-0000----|
D|-0-0-0000----------4-4-4444----------2--|

G|-----|
D|-----|
A|-----|
D|-2---|



Any comments, questions or jokes send to style444@hotmail.com
comments
We did not receive enough feedback on this tab! Please rate:
print report bad tab
1 2 3 4 5
I want to post or [tab]
guest
You may want to rate the tab now too:
select rating
Please do not post tabs as comments. Select "correction" instead!