Oops, an error
Loading. Please wait.

Everything We Had Tab

version 1
version 1

Acoustic

Whole song

14,066 views 3 this week
1 commentread comment
1 2 3 4 5
excellent!
x 7
add to favorites
launch autoscroll
font size
0
reset
how to read this tab
guitar tuner
Tab Pro tools
  • play this tab
  • loop segment
  • change instrument
  • show fretboard
  • metronome
×
Best way to learn
"Everything We Had"
Autoscroll
slow
fast
+/-
esc
set tempo
stop
Contributor
Ok, i saw them playing an acoustic version of this great song. I think they play
it in Eb Tuning, but you can play it in a standard tuning. I'll tab the song in
Eb Tuning, hope you like it :). TAI rules!!

Tuning: Down 1/2 step (Eb Ab Db Gb Bb eb)
Time Signature: 3/4

Verse 1 (Let ring!!)

eb|-------------------------------------------------|---\
Bb|-------------------------------------------------|--- \
Gb|-----4-----4-----4-----4-----4-----4-----4-----4-|---  \ x2
Db|---4-----4-----4-----4-----4-----4-----4-----4---|---  /  
Ab|-5-----5-----------------0-----0-----------------|--- /
Eb|-------------3-----3-----------------3-----3-----|---/

You were the only face I'd ever known.
I was the light from the lamp on the floor,
and only as bright as you wanted me to be.

Verse 1 cont. (strum slightly)

eb|-------------------------------------------------|
Bb|-0-0-0-0-0-0-0-0-0-0-0-0-0-0-0-0-0-0-0-0-0-0-0-0-|
Gb|-4-4-4-4-4-4-4-4-4-4-4-4-4-4-4-4-4-4-4-4-4-4-4-4-|
Db|-4-4-4-4-4-4-4-4-4-4-4-4-4-4-4-4-4-4-4-4-4-4-4-4-|
Ab|-5-5-5-5-5-5-x-x-x-x-x-x-0-0-0-0-0-0-x-x-x-x-x-x-|
Eb|-------------3-3-3-3-3-3-------------3-3-3-3-3-3-|

But I am no gentleman, I can be a prick,
and I do regret more than I admit.

Pre-Chorus 1 (Figure out the strumming, it's not that hard, i'll try
to guide you guys).

eb|-0---0-0-0-0-|-2---2-2-2-2-|-3---3-3-3-3-|-3---3-3-3-3-|---\
Bb|-0---0-0-0-0-|-3---3-3-3-3-|-3---3-3-3-3-|-3---3-3-3-3-|--- \
Gb|-0---0-0-0-0-|-2---2-2-2-2-|-0---0-0-0-0-|-0---0-0-0-0-|---  \ x3
Db|-2---2-2-2-2-|-0---0-0-0-0-|-0---0-0-0-0-|-0---0-0-0-0-|---  /
Ab|-2---2-2-2-2-|-------------|-2---2-2-2-2-|-2---2-2-2-2-|--- /
Eb|-0---0-0-0-0-|-------------|-3---3-3-3-3-|-3---3-3-3-3-|---/

You have been followed back to the same place
I sat with you drink for drink.

eb|-0---0-0-0-0-|-0---0-0-0-0-|-0---0-0-0-0-|-0---0-0-0-0-|-0~--|
Bb|-0---0-0-0-0-|-0---0-0-0-0-|-3---3-3-3-3-|-3---3-3-3-3-|-2~--|
Gb|-0---0-0-0-0-|-0---0-0-0-0-|-2---2-2-2-2-|-2---2-2-2-2-|-2~--|
Db|-2---2-2-2-2-|-2---2-2-2-2-|-2---2-2-2-2-|-2---2-2-2-2-|-2~--| 
Ab|-3---3-3-3-3-|-3---3-3-3-3-|-0---0-0-0-0-|-0---0-0-0-0-|-0~--| 
Eb|-------------|-------------|-------------|-------------|-----|

Take the pain out of love, and then love won't exist. Everything we had...

Chorus 1 (He does some variations)

eb|-2---2-2-2-2-|-0---0-0-0-0-|-2---2-2-2-2-|-0---0-0-0-0-|
Bb|-3---3-3-3-3-|-3---3-3-3-3-|-3---3-3-3-3-|-3---3-3-3-3-|
Gb|-2---2-2-2-2-|-2---2-2-2-2-|-2---2-2-2-2-|-2---2-2-2-2-|  
Db|-0---0-0-0-0-|-0---0-0-0-0-|-0---0-0-0-0-|-0---0-0-0-0-|
Ab|-------------|-------------|-------------|-------------|
Eb|-------------|-------------|-------------|-------------|

                               Everything we had...

eb|-0---0-0-0-0-|-0---0-0-0-0-|-0---0-0-0-0-|-0---0-0-0-0-|
Bb|-3---3-3-3-3-|-3---3-3-3-3-|-2---2-2-2-2-|-2---2-2-2-2-| 
Gb|-2---2-2-2-2-|-2---2-2-2-2-|-2---2-2-2-2-|-2---2-2-2-2-|  
Db|-2---2-2-2-2-|-2---2-2-2-2-|-2---2-2-2-2-|-2---2-2-2-2-|  
Ab|-0---0-0-0-0-|-0---0-0-0-0-|-0---0-0-0-0-|-0---0-0-0-0-| 
Eb|-------------|-------------|-------------|-------------| 

                               Everything we had...

eb|-2---2-2-2-2-|-0---0-0-0-0-|-2---2-2-2-2-|-0---0-0-0-0-|
Bb|-3---3-3-3-3-|-2---2-2-2-2-|-3---3-3-3-3-|-2---2-2-2-2-| 
Gb|-4---4-4-4-4-|-4---4-4-4-4-|-4---4-4-4-4-|-4---4-4-4-4-|  
Db|-4---4-4-4-4-|-4---4-4-4-4-|-4---4-4-4-4-|-4---4-4-4-4-|  
Ab|-------------|-------------|-------------|-------------| 
Eb|-------------|-------------|-------------|-------------|

                               Everything we had...

eb|-3---3-3-3-3-|-3---3-3-3-3-|-3~--|
Bb|-3---3-3-3-3-|-3---3-3-3-3-|-3~--|
Gb|-0---0-0-0-0-|-0---0-0-0-0-|-3~--|
Db|-0---0-0-0-0-|-0---0-0-0-0-|-5~--|
Ab|-2---2-2-2-2-|-2---2-2-2-2-|-5~--|
Eb|-3---3-3-3-3-|-3---3-3-3-3-|-3~--|

                               It's no longer there...

eb|-------------------------------------------------|
Bb|-------------------------------------------------|
Gb|-----4-----4-----4-----4-----4-----4-----4-----4-|
Db|---4-----4-----4-----4-----4-----4-----4-----4---| 
Ab|-5-----5-----------------0-----0-----------------|
Eb|-------------3-----3-----------------3-----3-----|

Verse 2

eb|-------------------------------------------------|
Bb|-------------------------------------------------|
Gb|-----4-----4-----4-----4-----4-----4-----4-----4-|
Db|---4-----4-----4-----4-----4-----4-----4-----4---|  
Ab|-5-----5-----------------0-----0-----------------|
Eb|-------------3-----3-----------------3-----3-----|

It was the only place I'd ever known.
Turned off the light on my way out the door.

eb|-------------------------------------------------|
Bb|-------------------------------------------------|
Gb|-----4-----4-----4-----4-----4-----4-4-4-4-4-4-4-|
Db|---4-----4-----4-----4-----4-----4---4-4-4-4-4-4-|  
Ab|-5-----5-----------------0-----0-----x-x-x-x-x-x-|
Eb|-------------3-----3-----------------3-3-3-3-3-3-|

I will be watching wherever you go,
through the eyes of a fly on the wall.

Pre-Chrorus 2

eb|-0---0-0-0-0-|-2---2-2-2-2-|-3---3-3-3-3-|-3---3-3-3-3-|---\
Bb|-0---0-0-0-0-|-3---3-3-3-3-|-3---3-3-3-3-|-3---3-3-3-3-|--- \
Gb|-0---0-0-0-0-|-2---2-2-2-2-|-0---0-0-0-0-|-0---0-0-0-0-|---  \ x3
Db|-2---2-2-2-2-|-0---0-0-0-0-|-0---0-0-0-0-|-0---0-0-0-0-|---  /
Ab|-2---2-2-2-2-|-------------|-2---2-2-2-2-|-2---2-2-2-2-|--- /
Eb|-0---0-0-0-0-|-------------|-3---3-3-3-3-|-3---3-3-3-3-|---/

You have been followed back to the same place
I sat with you drink for drink.

eb|-0---0-0-0-0-|-0---0-0-0-0-|-0---0-0-0-0-|-0---0-0-0-0-|
Bb|-0---0-0-0-0-|-0---0-0-0-0-|-3---3-3-3-3-|-3---3-3-3-3-|
Gb|-0---0-0-0-0-|-0---0-0-0-0-|-2---2-2-2-2-|-2---2-2-2-2-|
Db|-2---2-2-2-2-|-2---2-2-2-2-|-2---2-2-2-2-|-2---2-2-2-2-| 
Ab|-3---3-3-3-3-|-3---3-3-3-3-|-0---0-0-0-0-|-0---0-0-0-0-| 
Eb|-------------|-------------|-------------|-------------|

   Take the pain out of love and then love won't exist.

eb|-0---0-0-0-0-|-0---0-0-0-0-|
Bb|-2---2-2-2-2-|-2---2-2-2-2-| 
Gb|-2---2-2-2-2-|-2---2-2-2-2-|  
Db|-2---2-2-2-2-|-2---2-2-2-2-|  
Ab|-0---0-0-0-0-|-0---0-0-0-0-| 
Eb|-------------|-------------| 

   Everything we had...

Chorus 2

eb|-2---2-2-2-2-|-0---0-0-0-0-|-2---2-2-2-2-|-0---0-0-0-0-|
Bb|-3---3-3-3-3-|-3---3-3-3-3-|-3---3-3-3-3-|-3---3-3-3-3-|
Gb|-2---2-2-2-2-|-2---2-2-2-2-|-2---2-2-2-2-|-2---2-2-2-2-|  
Db|-0---0-0-0-0-|-0---0-0-0-0-|-0---0-0-0-0-|-0---0-0-0-0-|
Ab|-------------|-------------|-------------|-------------|
Eb|-------------|-------------|-------------|-------------|

                               Everything we had...

eb|-0---0-0-0-0-|-0---0-0-0-0-|-0---0-0-0-0-|-0---0-0-0-0-|
Bb|-3---3-3-3-3-|-3---3-3-3-3-|-2---2-2-2-2-|-2---2-2-2-2-| 
Gb|-2---2-2-2-2-|-2---2-2-2-2-|-2---2-2-2-2-|-2---2-2-2-2-|  
Db|-2---2-2-2-2-|-2---2-2-2-2-|-2---2-2-2-2-|-2---2-2-2-2-|  
Ab|-0---0-0-0-0-|-0---0-0-0-0-|-0---0-0-0-0-|-0---0-0-0-0-| 
Eb|-------------|-------------|-------------|-------------| 

                               Everything we had...

eb|-2---2-2-2-2-|-0---0-0-0-0-|-2---2-2-2-2-|-0---0-0-0-0-|
Bb|-3---3-3-3-3-|-2---2-2-2-2-|-3---3-3-3-3-|-2---2-2-2-2-| 
Gb|-4---4-4-4-4-|-4---4-4-4-4-|-4---4-4-4-4-|-4---4-4-4-4-|  
Db|-4---4-4-4-4-|-4---4-4-4-4-|-4---4-4-4-4-|-4---4-4-4-4-|  
Ab|-------------|-------------|-------------|-------------| 
Eb|-------------|-------------|-------------|-------------|

                               Everything we had...

eb|-3---3-3-3-3-|-3---3-3-3-3-|-3---3-3-3-3-|-3---3-3-3-3-|
Bb|-3---3-3-3-3-|-3---3-3-3-3-|-3---3-3-3-3-|-3---3-3-3-3-|
Gb|-0---0-0-0-0-|-0---0-0-0-0-|-0---0-0-0-0-|-0---0-0-0-0-|
Db|-0---0-0-0-0-|-0---0-0-0-0-|-0---0-0-0-0-|-0---0-0-0-0-|
Ab|-2---2-2-2-2-|-2---2-2-2-2-|-2---2-2-2-2-|-2---2-2-2-2-|
Eb|-3---3-3-3-3-|-3---3-3-3-3-|-3---3-3-3-3-|-3---3-3-3-3-|

                               It's no longer there...

Bridge

eb|-0---0-0-0-0-|-0---0-0-0-0-|-3---3-3-3-3-|-3---3-3-3-3-|
Bb|-0---0-0-0-0-|-0---0-0-0-0-|-3---3-3-3-3-|-3---3-3-3-3-|
Gb|-0---0-0-0-0-|-0---0-0-0-0-|-0---0-0-0-0-|-0---0-0-0-0-|
Db|-2---2-2-2-2-|-2---2-2-2-2-|-0---0-0-0-0-|-0---0-0-0-0-|
Ab|-2---2-2-2-2-|-2---2-2-2-2-|-2---2-2-2-2-|-2---2-2-2-2-|
Eb|-0---0-0-0-0-|-0---0-0-0-0-|-3---3-3-3-3-|-3---3-3-3-3-|

        Longer there, well you saw for yourself

eb|-2---2-2-2-2-|-2---2-2-2-2-|-2---2-2-2-2-|-2---2-2-2-2-|
Bb|-3---3-3-3-3-|-3---3-3-3-3-|-3---3-3-3-3-|-3---3-3-3-3-|
Gb|-2---2-2-2-2-|-2---2-2-2-2-|-2---2-2-2-2-|-2---2-2-2-2-|  
Db|-0---0-0-0-0-|-0---0-0-0-0-|-0---0-0-0-0-|-0---0-0-0-0-|
Ab|-------------|-------------|-------------|-------------|
Eb|-------------|-------------|-------------|-------------|

        The way it played out...

eb|-0---0-0-0-0-|-0---0-0-0-0-|-3---3-3-3-3-|-3---3-3-3-3-|
Bb|-0---0-0-0-0-|-0---0-0-0-0-|-3---3-3-3-3-|-3---3-3-3-3-|
Gb|-0---0-0-0-0-|-0---0-0-0-0-|-0---0-0-0-0-|-0---0-0-0-0-|
Db|-2---2-2-2-2-|-2---2-2-2-2-|-0---0-0-0-0-|-0---0-0-0-0-|
Ab|-2---2-2-2-2-|-2---2-2-2-2-|-2---2-2-2-2-|-2---2-2-2-2-|
Eb|-0---0-0-0-0-|-0---0-0-0-0-|-3---3-3-3-3-|-3---3-3-3-3-|

        For you, I am blinded

eb|-2---2-2-2-2-|-2---2-2-2-2-|-0---0-0-0-0-|-0---0-0-0-0-|
Bb|-3---3-3-3-3-|-3---3-3-3-3-|-2---2-2-2-2-|-2---2-2-2-2-|
Gb|-2---2-2-2-2-|-2---2-2-2-2-|-3---3-3-3-3-|-3---3-3-3-3-|  
Db|-0---0-0-0-0-|-0---0-0-0-0-|-4---4-4-4-4-|-4---4-4-4-4-|
Ab|-------------|-------------|-4---4-4-4-4-|-4---4-4-4-4-|
Eb|-------------|-------------|-------------|-------------|

        For you, I am blinded

eb|-0---0-0-0-0-|-0---0-0-0-0-|-3~--|
Bb|-0---0-0-0-0-|-0---0-0-0-0-|-3~--|
Gb|-0---0-0-0-0-|-0---0-0-0-0-|-0~--|
Db|-2---2-2-2-2-|-2---2-2-2-2-|-0~--|
Ab|-2---2-2-2-2-|-2---2-2-2-2-|-2~--|
Eb|-0---0-0-0-0-|-0---0-0-0-0-|-3~--|

        For you...

Interlude

eb|-------------------------------------------------|
Bb|-------------------------------------------------|
Gb|-----4-----4-----4-----4-----4-----4-4-4-4-4-4-4-|
Db|---4-----4-----4-----4-----4-----4---4-4-4-4-4-4-|  
Ab|-5-----5-----------------0-----0-----x-x-x-x-x-x-|
Eb|-------------3-----3-----------------3-3-3-3-3-3-|

But I am no gentleman, I can be a prick,
and I do regret more than I admit.

Pre-Chorus 3 (Repeat Pre-Chorus 2) x1

Chorus 3 (Repeat Chorus 2) x1

Last Chorus

eb|-2---2-2-2-2-|-0---0-0-0-0-|-2---2-2-2-2-|-0---0-0-0-0-|
Bb|-3---3-3-3-3-|-3---3-3-3-3-|-3---3-3-3-3-|-3---3-3-3-3-|
Gb|-2---2-2-2-2-|-2---2-2-2-2-|-2---2-2-2-2-|-2---2-2-2-2-|  
Db|-0---0-0-0-0-|-0---0-0-0-0-|-0---0-0-0-0-|-0---0-0-0-0-|
Ab|-------------|-------------|-------------|-------------|
Eb|-------------|-------------|-------------|-------------|

                               Everything we had...

eb|-2---2-2-2-2-|-0---0-0-0-0-|-2---2-2-2-2-|-0---0-0-0-0-|
Bb|-3---3-3-3-3-|-2---2-2-2-2-|-3---3-3-3-3-|-2---2-2-2-2-| 
Gb|-4---4-4-4-4-|-4---4-4-4-4-|-4---4-4-4-4-|-4---4-4-4-4-|  
Db|-4---4-4-4-4-|-4---4-4-4-4-|-4---4-4-4-4-|-4---4-4-4-4-|  
Ab|-------------|-------------|-------------|-------------| 
Eb|-------------|-------------|-------------|-------------|

                               Everything we had...

eb|-0---0-0-0-0-|-0---0-0-0-0-|-0---0-0-0-0-|-0---0-0-0-0-|
Bb|-5---5-5-5-5-|-5---5-5-5-5-|-5---5-5-5-5-|-5---5-5-5-5-| 
Gb|-7---7-7-7-7-|-7---7-7-7-7-|-6---6-6-6-6-|-6---6-6-6-6-|  
Db|-7---7-7-7-7-|-7---7-7-7-7-|-7---7-7-7-7-|-7---7-7-7-7-|  
Ab|-0---0-0-0-0-|-0---0-0-0-0-|-0---0-0-0-0-|-0---0-0-0-0-| 
Eb|-------------|-------------|-------------|-------------|

                               Everything we had...

eb|-0---0-0-0-0-|-0---0-0-0-0-|-3~--|
Bb|-0---0-0-0-0-|-0---0-0-0-0-|-3~--|
Gb|-0---0-0-0-0-|-0---0-0-0-0-|-0~--|
Db|-2---2-2-2-2-|-2---2-2-2-2-|-0~--|
Ab|-2---2-2-2-2-|-2---2-2-2-2-|-2~--|
Eb|-0---0-0-0-0-|-0---0-0-0-0-|-3~--|

Outro

eb|------------------------------------------------|
Bb|-------------------------------------0~---------|
Gb|-----4-----4-----4-----4-----4-----4-4~---------|
Db|---4-----4-----4-----4-----4-----4---4~---------|
Ab|-5-----5-----------------0-----0-----x----------|
Eb|-------------3-----3-----------------3~---------|

I'll be with you wherever you go,
through the eyes of a fly on the wall

And that's pretty much it. Please enjoy! Sorry if it's too long. Please rate!
comments
print report bad tab
1 comment total.
0 reply
changeoftimesx wrote on May 26 2009, 10:59 pm

perfect.

I want to post or [tab]
guest
You may want to rate the tab now too:
select rating
Please do not post tabs as comments. Select "correction" instead!