Oops, an error
Loading. Please wait.

Everything We Had Bass Tab

version 2
version 2

Whole song

1,126 views 1 this week
no commentswrite comment
1 2 3 4 5
accurate
x 2
add to favorites
launch autoscroll
font size
0
reset
guitar tuner
Tab Pro tools
  • play this tab
  • loop segment
  • change instrument
  • show fretboard
  • metronome
Autoscroll
slow
fast
+/-
esc
set tempo
stop
Difficulty
novice
Everything We Had (bass tab) - The Academy Is...

This is what I thought sounded right for the bass tab.

Intro/Verse: (guitar and vocals only. No bass)
"You we're the only face I'd ever know....."


Pre-Chorus:
"You have been followed, back to the same place...."

G|-------------------------------------------------|
D|-------------------------------------------------|
A|---------------------------333333----------------|
E|---0~--2~--3~-(x3)---------------555555-5~~------|


Chorus: 
"Everything We Had..."

G|-------------------------------------------------|
D|-------------------------------------------------|
A|---555555555555------------222222222222----------|
E|---------------555555555555------------333333-3~-|


Verse 2: (Vocals, Guitar, and Orchestra. No bass)
"It was the only place I'd ever known..."


Pre-Chorus 2:
"You have been followed, back to the same place...."

G|-------------------------------------------------|
D|-------------------------------------------------|
A|---------------------------333333----------------|
E|---0~--2~--3~-(x3)---------------555555-5~~------|


Chorus 2: 
"Everything We Had..."

G|----------------------------------------------------|
D|----------------------------------------------------|
A|---555555555555------------222222222222-------------|
E|---------------555555555555------------333333333333-|


Bridge:
"Is no longer there, longer there...."

G|--------------------------------------------------------------|
D|--------------------------------------------------------------|
A|-222222------555555555555-222222------555555-444444-222222----|
E|-------333333-------------------333333---------------------3~-|


Break: (I dunno if thats what I'm supposed to call it. W/e. No bass)
"I am no gentleman, I can be a prick...."


Pre-Chorus 3:
"You have been followed, back to the same place...."

G|-------------------------------------------------|
D|-------------------------------------------------|
A|---------------------------333333----------------|
E|---0~--2~--3~-(x3)---------------555555555555----|


Chorus 3: 
"Everything We Had..."

G|----------------------------------------------------|
D|----------------------------------------------------|
A|---555555555555------------222222222222-------------|
E|---------------555555555555------------333333333333-| 


G|----------------------------------------------------|
D|----------------------------------------------------|
A|---555555555555-222222222222------------222222------|
E|----------------------------555555555555-------3~---|


Outro: (Vocals and Guitar. No bass)
"I'll be with you wherever you go..."


That's it. Nothin' special. but it is really fun to play with a band on this song, so have fun!
comments
We did not receive enough feedback on this tab! Please rate:
print report bad tab
1 2 3 4 5
I want to post or [tab]
guest
You may want to rate the tab now too:
select rating
Please do not post tabs as comments. Select "correction" instead!