Oops, an error
Loading. Please wait.

Ghost Tab

version 2
version 2

Whole song

888 views 1 this week
no commentswrite comment
1 2 3 4 5
please rate
add to favorites
launch autoscroll
font size
0
reset
how to read this tab
guitar tuner
Tab Pro tools
  • play this tab
  • loop segment
  • change instrument
  • show fretboard
  • metronome
×
Best way to learn
"Ghost"
Autoscroll
slow
fast
+/-
esc
set tempo
stop
Contributor
Difficulty
intermediate
The Academy Is... - Ghost
From the album Santi
Tab by moontard


"Ghost" is a bonus track from the album Santi. In my opinion its the best song on there.
This is the entire song except the solo. If anyone can give me a hand on that PM me or whatevs.
Even though The Academy Is... have two guitarists, I have made this tab for one guitar
only as the only
time the two guitars are playing seperate things (that I am aware of) is in the solo
as I said I haven't
tabbed). Enjoy.

Tuning - Standard (EADGBe)

Intro/Verse
e|--------------------------------|
B|-----2------0h2------2------0h2-|
G|---2------2--------2------2-----|
D|-0------0--------2------2-------|
A|--------------------------------|
E|--------------------------------|

e|----------------------------------|
B|-----2------0h2------2------2h3p2-|
G|---2------2--------2------2-------|
D|-0------0--------3------3---------|
A|----------------------------------|
E|----------------------------------|

Pre-Chorus

Let these chords ring out.

e|--------------|
B|-7------------|
G|-7-----6------|
D|-7-----7------|
A|-5-----7------|
E|-------5------|

Chorus

e|------------------------------------|--- \
B|------------------------------------| -- \
G|-6-------7-------1-------------  ------- \x2
D|-7-------7-------2-------------  ------- \
A|-7-(x16)-5-(x16)-2-(x16)---------------- \  /
E|-5---------------0---------------------- \ /

Post-Chorus

e|-------------------xxxxx-----------|
B|-------------------xxxxx-----------|
G|-14-13-11-11\7-----xxxxx-----------|
D|-x--x--x--x--x-----xxxxx-----------|
A|-12-11-9--9-\5-----xxxxx-----------|
E|-------------------xxxxx-----------|   This is a fun little riff to play
				 	On the slide make sure you sort of
					drag your hand along the frets to get
					the right effect. Don't go straight to
					the D octave. Then just scratch the hell
					out of your guitar.

Verse 2

e|--------|
B|-x-10---|
G|-x-11---|
D|-x-x----|
A|-x-9----|
E|--------|	You don't have to play the A note on the B string, you can't really hear it that
		well in the song. If you do a slight slide after playing this it sounds
                pretty cool
		but again you can barely hear this in the song.

Anyway thats the majority of the song, i'm sure you guys can figure out when you play each bit.
As I said any suggestions on the solo would be great.
comments
We did not receive enough feedback on this tab! Please rate:
print report bad tab
1 2 3 4 5
I want to post or [tab]
guest
You may want to rate the tab now too:
select rating
Please do not post tabs as comments. Select "correction" instead!