Oops, an error
Loading. Please wait.

His Girl Friday Bass Tab

1,389 views 1 this week
1 commentread comment
1 2 3 4 5
please rate
add to favorites
launch autoscroll
font size
0
reset
guitar tuner
Tab Pro tools
  • play this tab
  • loop segment
  • change instrument
  • show fretboard
  • metronome
×
Best way to learn
"His Girl Friday"
Autoscroll
slow
fast
+/-
esc
set tempo
stop
Contributor
-------------------------------------------------------------------------------
			     His Girl Friday - The Academy Is...
-------------------------------------------------------------------------------

Tabbed By : MusicMan24
e-mail: a7t1r1@hotmail.com

This tab was completely done by ear. The only part I'm not too sure
about are the little fills in the chorus, but other than that, I'm
sure it's 100% correct.


Tuning: Standard (EADG)


Intro x1
 
G|------------------------------------------------------------------|
D|------------------------------------------------------------------|
A|5555555555555555----------------22222222--------------------------|
E|----------------3333333333333333--------22222222-3333333333333333-|


Verse x1

G|-----------------------------------------------------------------|
D|-----------------------------------------------------------------|
A|55555555--------22222222--------55555555--------22222222---------|
E|--------55555555--------22222222--------55555555--------33333333-|


Pre-Chorus x1

G|------------------------------------|
D|------------------------------------|
A|55555555--------22222222------------|
E|--------55555555--------33333333-5~-|


Chorus x2

G|------------------------------------------------------------------------|
D|------------------------------------------------------------------------|
A|555555555555555-5---------------------22222222--------------------------|
E|-----------------5-333333333333333-3-5--------22222222-3333333333333333-|


Post-Chorus X2

G|-----------------------------------|
D|-----------------------------------|
A|55555555-77777777-1010101010101010-|
E|-----------------------------------|

Verse x1
Pre-Chorus x1
Chorus x2
Post-Chorus x2


Guitar Solo x1

G|-----------------------------------------------------------------|
D|-----------------------------------------------------------------|
A|55555555--------22222222--------55555555--------22222222---------|
E|--------55555555--------22222222--------55555555--------33333333-|


Interlude x1

G|------------------------------------------------------------------|
D|------------------------------------------------------------------|
A|55555555--------22222222--------55555555--------------------------|
E|--------55555555--------22222222--------55555555-222333-5-55-55-5-|

Chorus x2
Post-Chorus x2


Outro x1

G|--------------------------------------------------------------------|
D|--------------------------------------------------------------------|
A|5555555555555555----------------22222222-------------------------5~-|
E|----------------3333333333333333--------22222222-3333333333333333---|


Better be good, I spent almost a month working on this song.



| /  slide up
| \  slide down
| h  hammer-on
| p  pull-off
| ~  vibrato
| +  harmonic
| x  Mute note
===============================================================================
comments
We did not receive enough feedback on this tab! Please rate:
print report bad tab
1 2 3 4 5
1 comment total.
0 reply
Peacemaker21 wrote on July 11 2009, 10:54 pm

perfect tab man, 5 stars, and the fills in the chorus sound good to me

I want to post or [tab]
guest
You may want to rate the tab now too:
select rating
Please do not post tabs as comments. Select "correction" instead!