Oops, an error
Loading. Please wait.

Im Yours Tonight Tab

714 views 1 this week
1 commentread comment
1 2 3 4 5
please rate
add to favorites
launch autoscroll
font size
0
reset
how to read this tab
guitar tuner
Tab Pro tools
  • play this tab
  • loop segment
  • change instrument
  • show fretboard
  • metronome
×
Best way to learn
"Im Yours Tonight"
Autoscroll
slow
fast
+/-
esc
set tempo
stop
Contributor
Artist: The Academy Is...
Song: I'm Yours Tonight
Album: Lost In Pacific Time
Tabbed by: gustavoaraujo999@hotmail.com

[Intro]
e|---------------------------------|
B|-------7------------10~-10~------|
G|---7-9---9--7-6---------8~-------|
D|-9--------------9~----------[x3]-|
A|---------------------------------|
E|---------------------------------|

e|------------------------------------|---------------------------------------|
B|------------------------------------|---------------------------------------|
G|----------7-7-7-7-------------------|----------7-7-7-7----------------------|
D|-5-5-5-5--7-7-7-7--7-7-7-7--9-9-9-9-|-5-5-5-5--7-7-7-7--7-7-7-7--2-2-4-4-5~-|
A|-5-5-5-5--5-5-5-5--7-7-7-7--9-9-9-9-|-5-5-5-5--7-7-7-7--7-7-7-7--2-2-4-4-5~-|
E|-3-3-3-3-----------5-5-5-5--7-7-7-7-|-3-3-3-3-----------5-5-5-5--0-0-2-2-3~-|
 
[Verse]
e|--------------------------------| |--------9~---|------9~-------12~-|
B|--------------------------------| |-------------|-------------------|
G|--------------------------------| |----7---[x2]-|----7------7-9-----|
D|-5-5-5-5--7-7-7-7--9-9-9-9------| |--9---9------|-9-----------------|
A|-5-5-5-5--7-7-7-7--9-9-9-9-[x4]-| |-------------|--------[x2]-------|
E|-3-3-3-3--5-5-5-5--7-7-7-7------| |-------------|-------------------|

[Chorus 1]
e|------------------------------------|------------------------------------|
B|------------------------------------|------------------------------------|
G|----------7-7-7-7-------------------|----------7-7-7-7-------------------|
D|-5-5-5-5--7-7-7-7--7-7-7-7--9-9-9-9-|-5-5-5-5--7-7-7-7--7-7-7-7--2-2-4-4-| [x2]
A|-5-5-5-5--5-5-5-5--7-7-7-7--9-9-9-9-|-5-5-5-5--5-5-5-5--7-7-7-7--2-2-4-4-|
E|-3-3-3-3-----------5-5-5-5--7-7-7-7-|-3-3-3-3-----------5-5-5-5--0-0-2-2-|

e|----------------|
B|----------------|
G|-------7~-------|
D|-5~----7~---7~--|
A|-5~----5~---7~--|
E|-3~---------5~--|
 
[Verse]
e|--------------------------------| |---------|------------------|
B|--------------------------------| |-10p8-7/-|-7/---10-10p8-7/--|
G|--------------------------------| |---------|------------------|
D|-5-5-5-5--7-7-7-7--9-9-9-9------| |---------|------[x3]--------|
A|-5-5-5-5--7-7-7-7--9-9-9-9-[x4]-| |---------|------------------|
E|-3-3-3-3--5-5-5-5--7-7-7-7------| |---------|------------------|
 
[Chorus 2]
e|------------------------------------|------------------------------------|
B|------------------------------------|------------------------------------|
G|----------7-7-7-7-------------------|----------7-7-7-7-------------------| [x2]
D|-5-5-5-5--7-7-7-7--7-7-7-7--9-9-9-9-|-5-5-5-5--7-7-7-7--7-7-7-7--2-2-4-4-|
A|-5-5-5-5--5-5-5-5--7-7-7-7--9-9-9-9-|-5-5-5-5--5-5-5-5--7-7-7-7--2-2-4-4-|
E|-3-3-3-3-----------5-5-5-5--7-7-7-7-|-3-3-3-3-----------5-5-5-5--0-0-2-2-|

e|--------------------------|
B|--------------------------|
G|-------7~-----------------|
D|-5~----7~---7--7-7-7-7-7--|
A|-5~----5~---7--7-7-7-7-7--|
E|-3~---------5--5-5-5-5-5--|
                 . . . . . 
 [Bridge]
e|-------------------------------------|----------|
B|---------------------------[x2]------|----------|
G|-------------------------------------|----------|
D|-9-9-9-9--8-8-8-8--7-7-7-7--5-5-5-5--|-2-2-4-4--|
A|-9-9-9-9--8-8-8-8--7-7-7-7--5-5-5-5--|-2-2-4-4--|
E|-7-7-7-7--6-6-6-6--5-5-5-5--3-3-3-3--|-0-0-2-2--|

e|--3~--5~--7~---|
B|--3~--5~--7~---|
G|--4~--6~--7~---|
D|--5~--7~--9~---|
A|--5~--7~--9~---|
E|--3~--5~--7~---|

[Chorus 3]
e|------------------------------------|------------------------------------|
B|------------------------------------|------------------------------------|
G|----------7-7-7-7-------------------|----------7-7-7-7-------------------|
D|-5-5-5-5--7-7-7-7--7-7-7-7--9-9-9-9-|-5-5-5-5--7-7-7-7--7-7-7-7--2-2-4-4-| [x4]
A|-5-5-5-5--5-5-5-5--7-7-7-7--9-9-9-9-|-5-5-5-5--5-5-5-5--7-7-7-7--2-2-4-4-|
E|-3-3-3-3-----------5-5-5-5--7-7-7-7-|-3-3-3-3-----------5-5-5-5--0-0-2-2-|

e|----------------|
B|----------------|
G|-------7~-------|
D|-5~----7~---7~--|
A|-5~----5~---7~--|
E|-3~---------5~--|
comments
We did not receive enough feedback on this tab! Please rate:
print report bad tab
1 2 3 4 5
1 comment total.
0 reply
MusicMan24 wrote on February 13 2013, 06:47 pm

Missing some leads but pretty good

I want to post or [tab]
guest
You may want to rate the tab now too:
select rating
Please do not post tabs as comments. Select "correction" instead!