Oops, an error
Loading. Please wait.

Lax To Ohare Bass Tab

version 1
version 1

Whole song

Interactive

2,442 views 1 this week
1 commentread comment
1 2 3 4 5
accurate
x 9
add to favorites
launch autoscroll
font size
0
reset
guitar tuner
Tab Pro tools
  • play this tab
  • loop segment
  • change instrument
  • show fretboard
  • metronome
×
Best way to learn
"Lax To Ohare"
Autoscroll
slow
fast
+/-
esc
set tempo
stop
Difficulty
intermediate
The Academy Is...
LAX To O'Hare

Standard Tuning

this is the first tab I've made, but I figured out parts of it from a guitar tab for 
song which was pretty good.


Intro:

G|----------------|--------------------|
D|----77----------|----7799------------|
A|--99--99--245-4-|--99----7799101014~-|
E|77-------3------|77------------------|


Verse 1:

G|-----------------|-------------------------|------------------|
D|-----------------|-------------------------|------------------|
A|-------------5---|------------10--10109----|--------------5---|
E|7--57--57--57-75-|12--1212--12-------------||7--57--57--57-75-|

--------------------------|
--------------------------|
--------------------------|
12--1212--1210101010109---|


Verse 2:

G|-----------------|-------------------------|------------------|
D|-----------------|-------------------------|------------------|
A|-------------5---|------------10--10109----|--------------5---|
E|7--57--57--57-75-|12--1212--12-------------||7--57--57--57-75-|

----------------------|
----------------------|
10~-------12~---------|
----------------------|


Prechorus

G|----------------|
D|----------------|
A|7777777777777---|
E|----------------|


Chorus:


G|----------------------------------|----------------------------------|
D|----------------------------------|----------------------------------|
A|--------7-77-777------------------|----------------------------------|
E|7-7-77-----------0-0-00--3-33-333-|7-7-77--5-55-555-0-0-00--0-00-000-|

-----------------------------------|--------------------------------|
-----------------------------------|--------------------------------|
-----------------------------------|--------------------------------|
-7-7-77--5-55-555-0-0-00--3-33-333-|00000000222222223333333355555555|


Intro
Verse 1
Verse 1
Prechorus
Chorus


Bridge (X2):

G|--------------------------------|
D|--------------------------------|
A|5~------------------------------|
E|--------5~------7~------3~------|


Verse 1
Verse 2
Chorus


Outro:

G|----------------|----------------|----------------|
D|----77----------|----77----------|----77----------|
A|--99--99--245-4-|--99--99--245-4-|--99--99--245-4-|
E|77-------3------|77-------3------|77-------3------|

---------------------------------------|
----7799-------------------------------|
--99----7799101014-779910101015~-------|
77-------------------------------------|
comments
print report bad tab
1 comment total.
0 reply
lackofcolor wrote on March 29 2007, 02:00 pm

"this is the first tab I've made, but I figured out parts of it from a guitar tab for song which was pretty good."

lol. that would be my tab. And thank you, it looks alot what i wrote but yours is a bit more accurate. 5 stars bud.
Santi is almost out woooh, im gonna tab the whole album =)

I want to post or [tab]
guest
You may want to rate the tab now too:
select rating
Please do not post tabs as comments. Select "correction" instead!