Oops, an error
Loading. Please wait.

Lax To Ohare Bass Tab

version 2
version 2

Whole song

Interactive

1,659 views 6 this week
3 commentsread comments
1 2 3 4 5
accurate
x 7
add to favorites
launch autoscroll
font size
0
reset
guitar tuner
Tab Pro tools
  • play this tab
  • loop segment
  • change instrument
  • show fretboard
  • metronome
×
Best way to learn
"Lax To Ohare"
Autoscroll
slow
fast
+/-
esc
set tempo
stop
Contributor
Artist: The Academy Is...
Bassist: Adam Siska
Song: LAX To O'Hare
Album: Santi
Tabbed By: Lewis [lewis_mason21@hotmail.com]

Okay, I've tabbed this out a bit more accurately than what's already on the site, though 
small fill in the chorus may be a bit wrong!  Have fun!

Key:
~: Let Note Ring
/: Slide Up
\: Slide Down

[Tuning: Standard - E,A,D,G]

Intro: [Note: You play this part then rest while the guitar plays a part, then come back in]
G|-------------|-REST-|-------------|-REST-|
D|-------77----|-REST-|-------77----|-REST-|
A|----99----9\-|-REST-|----99----9\-|-REST-|
E|-77----------|-REST-|-77----------|-REST-|


Verse One: [Note: 12's, not 1's and 2's...etc.]
("It was a plane ride" ... "Gives to me new wounds")
G|------------------------|
D|------------------------|
A|------------------5-----|
E|-7--5-7--5-7--5-7---7-5-|

G|------------------------------|
D|------------------------------|
A|---------------10--10-10-10-9-|
E|-12--12-12--12----------------|

G|------------------------|
D|------------------------|
A|------------------5-----|
E|-7--5-7--5-7--5-7---7-5-|

G|--------------------------|
D|--------------------------|
A|--------------------------|
E|-12--12-12--12-10--10-9-9-|

G|------------------------|
D|------------------------|
A|------------------5-----|
E|-7--5-7--5-7--5-7---7-5-|

G|-------------------------------|
D|-------------------------------|
A|---------------10--10-10-10-9/-|
E|-12--12-12--12-----------------|


Pre-Chorus:
("To patch and dress" ... "On what else I could give you")
G|----------|----------------|
D|----------|----------------|
A|-10~--12~-|-7777777777777\-|
E|----------|----------------|


Chorus:
("Maybe I should blindly throw my faith" ... "The sun on my back")
G|-------------------------------------|
D|-------------------------------------|
A|----------77777777-------------------|
E|-77777777----------00000000-33333333-|

G|-------------------------------------|
D|-------------------------------------|
A|-------------------------------------|
E|-77777777-55555555-00000000-00000235-|

G|-------------------------------------|
D|-------------------------------------|
A|-------------------------------------|
E|-77777777-55555555-00000000-33333333-|

G|-------------------------------------|
D|-------------------------------------|
A|-------------------------------------|
E|-00000000-22222222-33333333-55555555-|


Post-Chorus: [Note: Same as Intro]
G|-------------|-REST-|-------------|-REST-|
D|-------77----|-REST-|-------77----|-REST-|
A|----99----9\-|-REST-|----99----9\-|-REST-|
E|-77----------|-REST-|-77----------|-REST-|


Verse Two: [Note: 12's, not 1's and 2's...etc.]
("It was a big bang" ... "You oughta keep it")
G|------------------------|
D|------------------------|
A|------------------5-----|
E|-7--5-7--5-7--5-7---7-5-|

G|------------------------------|
D|------------------------------|
A|---------------10--10-10-10-9-|
E|-12--12-12--12----------------|

G|------------------------|
D|------------------------|
A|------------------5-----|
E|-7--5-7--5-7--5-7---7-5-|

G|--------------------------|
D|--------------------------|
A|--------------------------|
E|-12--12-12--12-10--10-9-9-|

G|------------------------|
D|------------------------|
A|------------------5-----|
E|-7--5-7--5-7--5-7---7-5-|

G|-------------------------------|
D|-------------------------------|
A|---------------10--10-10-10-9/-|
E|-12--12-12--12-----------------|


Pre-Chorus:
("One last chance" ... "On what else I could give you")
G|-----------------------------------|------------------|
D|-----------------------------------|------------------|
A|-1010101010101010-1212121212121212-|-7777777777777777-|
E|-----------------------------------|------------------|


Chorus:
("Maybe I should blindly throw my faith" ... "The sun on my back")
G|-------------------------------------|
D|-------------------------------------|
A|----------77777777-------------------|
E|-77777777----------00000000-33333333-|

G|-------------------------------------|
D|-------------------------------------|
A|-------------------------------------|
E|-77777777-55555555-00000000-00000235-|

G|-------------------------------------|
D|-------------------------------------|
A|-------------------------------------|
E|-77777777-55555555-00000000-33333333-|

G|-------------------------------------|
D|-------------------------------------|
A|-------------------------------------|
E|-00000000-22222222-33333333-55555555-|


Bridge:
("Apologies are all we'll ever be" ... "The choice I had to...")
G|---------------------------------------------------------------------|
D|---------------------------------------------------------------------|
A|-5555555555555555----------------------------------------------------|
E|------------------5555555555555555-7777777777777777-3333333333333333-|

G|---------------------------------------------------------------------|
D|---------------------------------------------------------------------|
A|-5555555555555555----------------------------------------------------|
E|------------------5555555555555555-7777777777777777-3333333355555555-|


Verse Three: [Note: 12's, not 1's and 2's...etc.]
("It was a plane ride" ... "Just a plain...")
G|------------------------|
D|------------------------|
A|------------------5-----|
E|-7--5-7--5-7--5-7---7-5-|

G|------------------------------|
D|------------------------------|
A|---------------10--10-10-10-9-|
E|-12--12-12--12----------------|

G|------------------------|
D|------------------------|
A|------------------5-----|
E|-7--5-7--5-7--5-7---7-5-|

G|--------------------------|
D|--------------------------|
A|--------------------------|
E|-12--12-12--12-10--10-9-9-|

G|------------------------|
D|------------------------|
A|------------------5-----|
E|-7--5-7--5-7--5-7---7-5-|

G|------------------------------|
D|------------------------------|
A|---------------10--10-10-10-9-|
E|-12--12-12--12----------------|

G|------------------------|
D|------------------------|
A|------------------5-----|
E|-7--5-7--5-7--5-7---7-5-|

G|---------------------------------|
D|---------------------------------|
A|---------------10--10-10--10-12~-|
E|-12--12-12--12-------------------|


Chorus:
("Maybe I should blindly throw my faith" ... "The sun on my back")
G|-------------------------------------|
D|-------------------------------------|
A|----------77777777-------------------|
E|-77777777----------00000000-33333333-|

G|-------------------------------------|
D|-------------------------------------|
A|-------------------------------------|
E|-77777777-55555555-00000000-00000235-|

G|-------------------------------------|
D|-------------------------------------|
A|-------------------------------------|
E|-77777777-55555555-00000000-33333333-|

G|-------------------------------------|
D|-------------------------------------|
A|-------------------------------------|
E|-00000000-22222222-33333333-55555555-|


Outro:
Post-Chorus: [Note: Same as Intro]
G|-------------|-REST-|-------------|-REST-|-------------|-REST-|
D|-------77----|-REST-|-------77----|-REST-|-------77----|-REST-|
A|----99----9\-|-REST-|----99----9\-|-REST-|----99----9\-|-REST-|
E|-77----------|-REST-|-77----------|-REST-|-77----------|-REST-|

G|--------------------------------------------|
D|-------77-99--------------------------------|
A|----99-------77-99-1010-1414-77-99-1010-15~-|
E|-77-----------------------------------------|
comments
print report bad tab
3 comments total.
0 reply
choke383 wrote on August 1 2007, 10:53 am

your missing alot of notes and the intro is off. what you tabbed is from the guitar

0 reply
Rock_Rebel wrote on May 30 2008, 03:02 am

i think its an okay tab, thanks for it :)

0 reply
omerd10 wrote on June 1 2010, 08:34 am

just wrong

I want to post or [tab]
guest
You may want to rate the tab now too:
select rating
Please do not post tabs as comments. Select "correction" instead!