Oops, an error
Loading. Please wait.

Slow Down tab

version 2
version 2

Whole song

Interactive

20,014 views 6 this week
5 commentsread comments
1 2 3 4 5
x 12
add to favorites
×
Save as Personal and add changes to this tab that will be seen only by you. Learn more ›
×
You can save this tab as Personal to edit and correct it or add notes. All changes will be seen only by you. Learn more »
launch autoscroll
font size
0
reset
how to read this tab
guitar tuner
edit
Autoscroll
slow
fast
+/-
esc
set tempo
stop
-------------------------------------------------------------------------------
                             Slow Down - The Academy is
-------------------------------------------------------------------------------
Tabbed by:tyler

Tuning:Drop D
Any corrections just comment.

Intro/Verse "Close the door..."

Guitar 1
e|-----------------------------------------------------------------|
B|-----------------------------------------------------------------|
G|-14~--14~--13~---------------------------------------------------|
D|-12~--11~--14~---------------------------------------------------|2x
A|-12~--12~--14~---------------------------------------------------|
D|-----------------------------------------------------------------|

Hit this on the last chord.
Guitar 2 
e|-4-4-4-4-4-4-4-4-4-0-0-0-0-0-0-0-4-4-4-4-4-4-4-4-4-0-0-0-0-0-0-0-|
B|-----------------------------------------------------------------|
G|-----------------------------------------------------------------|2x
D|-----------------------------------------------------------------|
A|-----------------------------------------------------------------|
D|-----------------------------------------------------------------|
pm * * * * * * * * * * * * * * * * * * * * * * * * * * * * * * * *

Verse "You've won the role you've played the part..."
 
Guitar 1
e|-----------------------------------------------------------------|
B|-----------------------------------------------------------------|
G|-14~--14~-----13-----13-------13-----13-13-13--------------------|
D|-12~--11~-----14-----14-------14-----14-14-14--------------------|2x
A|-12~--12~-----14-----14-------14-----14-14-14--------------------|
D|----------0-0------0------0-0------0-----------------------------|
            * *      *      * *      *

Guitar 2
e|-----------------------------------------------------------------|
B|-----------------------------------------------------------------|
G|---------------9-----9--------9-----9-9-9------------------------|
D|---------------9-----9--------9-----9-9-9------------------------|2x
A|---------------7-----7--------7-----7-7-7------------------------|
D|-----------7-7-----7------7-7-----7------------------------------|
             * *      *      * *      *
e|-----------------------------------------------------------------|
B|-----------------------------------------------------------------|
G|-----------------------------------------------------------------|
D|--0~---------0--2~-----------------------------------------------|
A|--0~---------0--2~-----------------------------------------------|
D|--0~---------0--2~-----------------------------------------------|

Prechorus/Verse "Holywood Hills and Suburban thrills..."

Guitar 1

e|------------------------------------------------------------------|
B|------------------------------------------------------------------|
G|------------------------------------------------------------------|
D|-9---------------12--------------7---------------2----------------|
A|-9-16x-----------12-16x----------7-16x-----------2-16x------------|
D|-9---------------12--------------7---------------2----------------|
   *               *                *              *
Guitar 2
e|------------------------------------------------------------------|
B|------------------------------------------------------------------|
G|-4---------------7---------------2--------------------------------|
D|-x-16x-----------x-16x-----------x-16x-----------2----------------|
A|-2---------------5---------------0---------------2-16x------------|
D|-------------------------------------------------2----------------|
   *               *               *               *
Second time 
e|------------------------------------------------------------------|
B|------------------------------------------------------------------|
G|-------------------------------------------------9----------------|
D|-9---------------12--------------7---------------9----------------|
A|-9-16x-----------12-16x----------7-16x-----------7-16x------------|
D|-9---------------12--------------7--------------------------------|
   *               *                *              *
Guitar 2
e|------------------------------------------------------------------|
B|------------------------------------------------------------------|
G|-4---------------7---------------2---------------9----------------|
D|-x-16x-----------x-16x-----------x-16x-----------9-16x------------|
A|-2---------------5---------------0---------------7----------------|
D|------------------------------------------------------------------|
   *               *               *               *


Chorus "Take Back EVerthing..."

Repeat Both Guitars two times.

Guitar 1 (second time hit powerchord 2 once and let ring)
e|-----------------------------------------------------------------|
B|-----------------------------------------------------------------|
G|-4--------7------------------------------------------------------|
D|-4-16x----7-16x---7-------2--------------------------------------|2x
A|-2--------5-------7-16x---2-16x----------------------------------|
D|------------------7-------2--------------------------------------|

Guitar 2 (2x)
e|-----------------------------------------------------------------|
B|-----------------------------------------------------------------|
G|-13-1414141414141414141414141414---------------------------------|
D|-x--x-x-x-x-x-x-x-x-x-x-x-x-x-x----------------------------------|
A|-11-1212121212121212121212121212---------------------------------|
D|-----------------------------------------------------------------|
Then
e|-----------------------------------------------------------------|
B|-----------------------------------------------------------------|
G|-14-1313131313131313131313131313---------------------------------|
D|-x--x-x-x-x-x-x-x-x-x-x-x-x-x-x----------------------------------|
A|-12-1111111111111111111111111111---------------------------------|
D|-----------------------------------------------------------------|


Verse

Prechorus/verse
add some of these into the prechorus/verse listen to the song 
e|----------------------------------------------------------------|
B|----------------------------------------------------------------|
G|-----9----------------------------------------------------------|
D|-----9----------------------------------------------------------|
A|-----7----------------------------------------------------------|
D|-7-7------------------------------------------------------------|

Chorus

Second time in chorus end with
e|-----------------------------------------------------------------|
B|-----------------------------------------------------------------|
G|-----------------------------------------------------------------|
D|-2-2-x-x-x-2-2---------------------------------------------------|
A|-2-2-x-x-x-2-2---------------------------------------------------|
D|-2-2-x-x-x-2-2---------------------------------------------------|

add some of these into the chorus listen to the song 
e|----------------------------------------------------------------|
B|----------------------------------------------------------------|
G|-----9----------------------------------------------------------|
D|-----9----------------------------------------------------------|
A|-----7----------------------------------------------------------|
D|-7-7------------------------------------------------------------|
   * *
Bridge

Guitar 1
e|-----------------------------------------------------------------|
B|-----------------------------------------------------------------|
G|-14~----11~------------9-----------------------------------------|
D|-14~----11~--x-x-x-x-x-9-4x--------------------------------------|
A|-12~----9~---x-x-x-x-x-7-----------------------------------------|
D|-------------x-x-x-x-x-------------------------------------------|
                                                                        2x
Guitar 2
e|-----------------------------------------------------------------|
B|-----------------------------------------------------------------|
G|-5~-----11~------------------------------------------------------|
D|-5~-----11~--x-x-x-x-x-7-----------------------------------------|
A|-7~-----9~---x-x-x-x-x-7-4x--------------------------------------|
D|-------------x-x-x-x-x-7-----------------------------------------|

Guitars 1&2
e|-----------------------------------------------------------------|
B|-----------------------------------------------------------------|
G|--5~-------------------------------------------------------------|
D|--5~-------------------------------------------------------------|
A|--7~-------------------------------------------------------------|
D|-----------------------------------------------------------------|

Bridge Part 2 Play in whole Two Times through

Guitar 1
e|-----------------------------------------------------------------|
B|-----------------------------------------------------------------|
G|-66-77777777777777-----------------------------------------------|
D|-xx-xxxxxxxxxxxxxx-----------------------------------------------|2x
A|-44-55555555555555-----------------------------------------------|
D|-----------------------------------------------------------------|

e|-----------------------------------------------------------------|
B|-----------------------------------------------------------------|
G|-77-66666666666666--66-44444444444444----------------------------|
D|-xx-xxxxxxxxxxxxxx--xx-xxxxxxxxxxxxxx----------------------------|
A|-55-44444444444444--44-22222222222222----------------------------|
D|-----------------------------------------------------------------|

Guitar 2 (2x)
e|-----------------------------------------------------------------|
B|-----------------------------------------------------------------|
G|-1313-1414141414141414141414141414-------------------------------|
D|-x-x--x-x-x-x-x-x-x-x-x-x-x-x-x-x--------------------------------|2x
A|-1111-1212121212121212121212121212-------------------------------|
D|-----------------------------------------------------------------|
Then
e|-----------------------------------------------------------------|
B|-----------------------------------------------------------------|
G|-1414-1313131313131313131313131313--1313-99999999999999----------|
D|-x-x--x-x-x-x-x-x-x-x-x-x-x-x-x-x---x-x--xxxxxxxxxxxxxx----------|2x
A|-1212-1111111111111111111111111111--1111-77777777777777----------|
D|-----------------------------------------------------------------|

Chorus 4x

| /  slide up
| \  slide down
| h  hammer-on
| p  pull-off
| ~  vibrato
| +  harmonic
| x  Mute note

            
            
Suggest correction
Creating personal tab
Creating personal tab
You can edit any tab online and save it as your Personal.

You can edit, replace or remove any tab part or add personal notes – all changes will be seen only by you.

Personal tabs can be accessed anytime from any device, even offline.
Learn more »
comments
print report bad tab
5 comments total. Showing first comments.
0 reply
lackofcolor 388 Dec 09, 2006 10:57 AM

Thank You. No one has done a good tab until now. There are tiny mistakes but im sure other people will comment on that and help you. Easily 5 stars

0 reply
zzgurlrockzz 10 Jul 17, 2007 09:30 AM

been looking for a GOOD TAB FOR THIS SONG FOR A WHILE...GOOD JOB

+1 reply
Guitar_Maestro 51 Aug 14, 2007 11:48 AM

when i listen to this song, on the "Hollywood hills + suburban thrills" part, it seems like Gtr. 2 is changing notes more frequently than Gtr 1.

guest
You may want to rate the tab now too:
select rating
Wanna post a correction for this tab? Suggest correction