Oops, an error
Loading. Please wait.

Weve Got A Big Mess On Our Hands bass

version 1
version 1

Whole song

Interactive

2,305 views 3 this week
2 commentsread comments
1 2 3 4 5
x 5
add to favorites
×
Save as Personal and add changes to this tab that will be seen only by you. Learn more ›
×
You can save this tab as Personal to edit and correct it or add notes. All changes will be seen only by you. Learn more »
launch autoscroll
font size
0
reset
guitar tuner
edit
Autoscroll
slow
fast
+/-
esc
set tempo
stop
Author
-------------------------------------------------------------------------------
	  We've Got  Big Mess On Our Hands - The Academy Is...
-------------------------------------------------------------------------------
Tabbed By: Valerie L.
e-mail: v_vengeance6661@yahoo.com
Tuning: standard

Intro no bass until (0:04)
G|------------------|
D|------------------|
A|--44444444444444--|
E|------------------|

Chorus
G|------------|
D|------------|
A|--4---2222--|
E|----0-------| x4

Verse
G|--------------------------------------------------------------|
D|--------------------------------------------------------------|
A|-7-7-7-7-7-7-7-7-7-7-7-7-7-7-7-7-7-7-7-7-7-7-7-7-7-7-7-7-7/9--|
E|--------------------------------------------------------------|

G|------------------------------------------------------------|
D|------------------------------------------------------------|
A|7-7-7-7-7-7-7-7-7-7-7-7-7-7-7-7-7-7-7-7-7-7-7-7-7-7-7-7-7-7-|
E|------------------------------------------------------------|

Chorus x4
Verse x1
Chorus x4

Bridge:
G|------------------------------------------|
D|------------------------------------7777--|
A|-4444-6666-7777-9999-4444-6666-7777-------|
E|------------------------------------------| x2

G|-------------------------| |--------------------|
D|-------------------------| |--------------------|
A|-7~--6~--7~----222222222-| |-4444------2222222--|
E|-------------------------| |------2222----------| x4

Chorus x8

Outro:
G|------------------------------------------|
D|------------------------------------7777--|
A|-4444-6666-7777-9999-4444-6666-7777-------|
E|------------------------------------------| x2
Suggest correction
Creating personal tab
Creating personal tab
You can edit any tab online and save it as your Personal.

You can edit, replace or remove any tab part or add personal notes – all changes will be seen only by you.

Personal tabs can be accessed anytime from any device, even offline.
Learn more »
comments
print report bad tab
2 comments total.
0 reply
LewisMasonx 1,741 Apr 23, 2007 07:57 AM

Cheers for tabbing this, sounds spot on! :)

0 reply
vricupati 10 Nov 30, 2007 12:39 PM

can u make tabs for seed? plz

guest
You may want to rate the tab now too:
select rating
Wanna post a correction for this tab? Suggest correction