Oops, an error
Loading. Please wait.

Crazy Tab

1,733 views 6 this week
no commentswrite comment
1 2 3 4 5
please rate
add to favorites
launch autoscroll
font size
0
reset
how to read this tab
guitar tuner
Tab Pro tools
  • play this tab
  • loop segment
  • change instrument
  • show fretboard
  • metronome
×
Best way to learn
"Crazy"
Autoscroll
slow
fast
+/-
esc
set tempo
stop
Contributor
Difficulty
The Adicts – Crazy

Intro
e|----------------|
B|----------------|
G|----------------|
D|2-2-2-2-2-2-2~~-|
A|0-3-0-3-0-3-0~~-|
E|--------------3-|

Main Riff
e|----------------------------------------|
B|----------------------------------------|
G|----------------------------------------|
D|---23~1~2~12~---23~1~2p1h2p1h2p1h2p1h2~-|
A|0~3----------0~3------------------------|
E|----------------------------------------|

Verse 1
e|----|----------------------|  |-----------|
B|----|----------------------|  |-----------|
G|999~|----------------------|  |-----------|
D|777~|--------------------2~|  |-----------|
A|----|-----------3p0—-3p0—0~|x3|3p0—-3p0---|
E|----|--------------3~---3~-|  |---3~---3~-|

Chorus 1
 1/8  1/8  1/8  1/16
e|--------------------|
B|--------------------|
G|--------------------|
D|T----7----5----T----|
A|8-x8-5-x8-3-x8-8-x16|
E|--------------------|
 1/8  1/8  1/8  1/8  For Chorus let notes ring while playing.
e|--------------------|
B|--------------------|
G|--------------------|
D|T----7----5---------|
A|8-x8-5-x8-3-x8-5----|
E|---------------3-x5-|



Main Riff
e|----------------------------------------|
B|----------------------------------------|
G|----------------------------------------|
D|---23~1~2~12~---23~1~2p1h2p1h2p1h2p1h2~-|
A|0~3----------0~3------------------------|
E|----------------------------------------|

Verse 2
e|----|----------------------|  |-----------|
B|----|----------------------|  |-----------|
G|999~|----------------------|  |-----------|
D|777~|--------------------2~|  |-----------|
A|----|-----------3p0—-3p0—0~|x3|3p0—-3p0---|
E|----|--------------3~---3~-|  |---3~---3~-|

Chorus 2
  1/8 1/8 1/4  1/16
e|--------------------|
B|--------------------|
G|--------------------|
D|T----7----5----T----|
A|8-x8-5-x8-3-x8-8-x16|
E|--------------------|
  1/8 1/8 1/8   1/8
e|--------------------|
B|--------------------|
G|--------------------|
D|T----7----5---------|
A|8-x8-5-x8-3-x8-5----|
E|---------------3-x5-|
pm               .

Main Riff
e|----------------------------------------|
B|----------------------------------------|
G|----------------------------------------|
D|---23~1~2~12~---23~1~2p1h2p1h2p1h2p1h2~-|
A|0~3----------0~3------------------------|
E|----------------------------------------|

Solo
e|12121211---11~-12121211-------12121211---11~12~15~17~-|
B|--------13~------------13~------------13~-------------|
G|------------------------------------------------------|
D|------------------------------------------------------|
A|------------------------------------------------------|
E|------------------------------------------------------|
Verse 3
e|121212|-----------13p12---13p12----|  |-----------|
B|------|----------------13------13--|  |-----------|
G|9-9-9-|----------------------------|  |-----------|
D|------|--------------------------2~|x3|-----------|
A|------|-------------------—------0~|  |3p0—-3p0---|
E|------|----------------------------|  |---3~---3~-|

Chorus 3
  1/8 1/8 1/4  1/16
e|--------------------|
B|--------------------|
G|--------------------|
D|T----7----5----T----|
A|8-x8-5-x8-3-x8-8-x16| x3
E|--------------------|
  1/8 1/8 1/8   1/8
e|--------------------|
B|--------------------|
G|--------------------|
D|T----7----5---------|
A|8-x8-5-x8-3-x8-5----|
E|---------------3-x5-|
pm               .

Outro
e|----0~~~~~~-----------0~-|
B|---1~~~~~~~-----------1~-|
G|--2~~~~~~~~-----------2~-|
D|-2~~~~~~~~~--2~3~1~2~~2~-|
A|0~~~~~~~~~~3~---------0~-|
E|-------------------------|
comments
We did not receive enough feedback on this tab! Please rate:
print report bad tab
1 2 3 4 5
I want to post or [tab]
guest
You may want to rate the tab now too:
select rating
Please do not post tabs as comments. Select "correction" instead!