Oops, an error
Loading. Please wait.

England Bass Tab

1,217 views 3 this week
no commentswrite comment
1 2 3 4 5
excellent!
x 1
add to favorites
launch autoscroll
font size
0
reset
guitar tuner
Tab Pro tools
  • play this tab
  • loop segment
  • change instrument
  • show fretboard
  • metronome
Autoscroll
slow
fast
+/-
esc
set tempo
stop
Contributor
Difficulty
novice
Song : England
Band: The Adicts
Tab By:  M. Van
flipside217@yahoo.com

intro

G-------------------------------------------------------|
D--------------------------------------55--33-----------|
A---5-66--------66-------66-----------------------------|
E--------556655---556655---556655-----------------------|


verse 2x

G-------------------------------------------------------|
D---11--11--11-----------11---11---11-------------------|
A-----11--11--11-----------11---11---11-----------------|
E----------------333---1---------------333---1----------|



chorus 1x

G-------------------------------------------------------|
D-------------------------------------------------------|
A-----------4-44-44-------44-66-------------------------|
E----1-11-11-------1-11-11------------------------------|



verse 2x

G-------------------------------------------------------|
D---11--11--11-----------11---11---11-------------------|
A-----11--11--11-----------11---11---11-----------------|
E----------------333--1----------------333--1-----------|

chorus

G-------------------------------------------------------|
D-------------------------------------------------------|
A-----------4-44-44-------44-66-------------------------|
E----1-11-11-------1-11-11------------------------------|


G-------------------------------------------------------|
D-------------------------------------------------------|
A-----------4-44-44-------44-66-------------------------|
E----1-11-11-------1-11-11------------------------------|


G-------------------------------------------------------|
D-------------------------------------------------------|
A---5-6~~5-6~~5-6~~5-6~~5-6~~5-6~~5-6~~5-6~~5-6~~-------|
E-------------------------------------------------------|

G-------------------------------------------------------|
D-------------------------------------------------------|
A--5-6~~5-6~~---6-8-9-10--------------------------------|
E-------------------------------------------------------|

chorus

G-------------------------------------------------------|
D-------------------------------------------------------|
A-----------4-44-44-------44-66-------------------------|
E----1-11-11-------1-11-11------------------------------|


G-------------------------------------------------------|
D-------------------------------------------------------|
A-----------4-44-44-------44-66-------------------------|
E----1-11-11-------1-11-11------------------------------|



G-------------------------------------------------------|
D----33333333--------33333333---------------------------|
A------------44444444---------66--44--------------------|
E-------------------------------------------------------|

G-------------------------------------------------------|
D----3-3-3-3-------3-3-3-3------------------------------|
A-----------4-4-4-4-----------66--44--------------------|
E-------------------------------------------------------|

G-------------------------------------------------------|
D-------------------------------------------------------|
A----1-1-1-1--1-1-1-1--1-1-1-1--1-3-4-6-----------------|
E-------------------------------------------------------|


verse 2x

G-------------------------------------------------------|
D---11--11--11-----------11---11---11-------------------|
A-----11--11--11-----------11---11---11-----------------|
E----------------333--1----------------333--1-----------|

chorus

G-------------------------------------------------------|
D-------------------------------------------------------|
A-----------4-44-44-------44-66-------------------------|
E----1-11-11-------1-11-11------------------------------|


G-------------------------------------------------------|
D-------------------------------------------------------|
A-----------4-44-44-----------44-66---------------------|
E----1-11-11-----------1-11-11--------------------------|



G----7-888-7-888-7-888-7-888----------------------------|
D-------------------------------------------------------|
A-------------------------------------------------------|
E-------------------------------------------------------|

chorus

G-------------------------------------------------------|
D-------------------------------------------------------|
A-----------4-44-44-----------44-66---------------------|
E----1-11-11-----------1-11-11--------------------------|


G-------------------------------------------------------|
D-------------------------------------------------------|
A-----------4-44-44-----------44-66---------------------|
E----1-11-11-----------1-11-11--------------------------|





Just listen to the song and you should get the rythym.
enjoy.
comments
We did not receive enough feedback on this tab! Please rate:
print report bad tab
1 2 3 4 5
I want to post or [tab]
guest
You may want to rate the tab now too:
select rating
Please do not post tabs as comments. Select "correction" instead!