Oops, an error
Loading. Please wait.

Telepathic People Tab

615 views 1 this week
1 commentread comment
1 2 3 4 5
please rate
add to favorites
launch autoscroll
font size
0
reset
how to read this tab
guitar tuner
Tab Pro tools
  • play this tab
  • loop segment
  • change instrument
  • show fretboard
  • metronome
×
Best way to learn
"Telepathic People"
Autoscroll
slow
fast
+/-
esc
set tempo
stop
Contributor
Intro
and 
Verse
E|----------------------------------|
B|----------------------------------|
G|--10101010101010--9/10/9----------|
D|--10101010101010--9/10/9--1010----|
A|---8-8-8-8-8-8-8--7/-8/7--1010----|
E|---------------------------8-8----|

Chorus
E|--------------------------------------------------------------------------|
B|--------------------------------------------------------------------------|
G|--------------------99999-------------------------------99999--1010-121212|
D|-1010101010--77777--99999--10101010101010101010--99999--99999--1010-121212|
A|-1010101010--77777--77777--10101010101010101010--99999--77777---8-8-101010|
E|--8-8-8-8-8--55555----------8-8-8-8-8-8-8-8-8-8--55555--------------------|

That's a nice song, from one of the Best Punk bands EVER!
Tab by PAULO MARASCA FILHO
comments
We did not receive enough feedback on this tab! Please rate:
print report bad tab
1 2 3 4 5
1 comment total.
0 reply
Bradzo3000 wrote on February 26 2014, 01:47 pm, edited at 01:48 pm

Verse
E|----------------------------------|
B|--[-----PM-----]------------------|
G|--10101010101010--9h10h9h10-------|
D|--10101010101010------------10----|
A|---8-8-8-8-8-8-8------------------|
E|----------------------------------|

I want to post or [tab]
guest
You may want to rate the tab now too:
select rating
Please do not post tabs as comments. Select "correction" instead!