Oops, an error
Loading. Please wait.

This Week Bass Tab

269 views 3 this week
1 commentread comment
1 2 3 4 5
please rate
add to favorites
launch autoscroll
font size
0
reset
guitar tuner
Tab Pro tools
  • play this tab
  • loop segment
  • change instrument
  • show fretboard
  • metronome
Autoscroll
slow
fast
+/-
esc
set tempo
stop
-----------------------------------------------------------------------------
THIS WEEK - THE ADICTS
-----------------------------------------------------------------------------

Tabbed by Kunders (Kunders@new.rr.com)

G|-----|X12
D|-1---|
A|---2-|
E|-----|

G|----------|X8
D|-111------|
A|-----222-|
E|----------|

G|-----------------------------|x2
D|-111-----111-------0-1---0-1-|
A|-----222-----222-2-----2-----|
E|-----------------------------|

G|-------|
D|-111---|
A|-----2-|
E|-------|

G|-----------------------------|
D|-111-----111-------0-1---0-1-|
A|-----222-----222-2-----2-----|
E|-----------------------------|

G|-------------------------------|
D|-111-----111-------0-1---0-1-2-|
A|-----222-----222-2-----2-------|
E|-------------------------------|


-----------------------------------------------------------------------------
comments
We did not receive enough feedback on this tab! Please rate:
print report bad tab
1 2 3 4 5
1 comment total.
0 reply
SkaJamas wrote on October 21 2015, 04:03 pm

this is pretty much right except i think

G|-------------------------------|
D|-111-----111-------0-1---0-1-2-|
A|-----222-----222-2-----2-------|
E|-------------------------------|

goes like

G|-------------------------------|
D|-111-----111---------1-----1-1-|
A|-----222-----222-2-4---2-4-----|
E|-------------------------------|

same for all the verse

i tabbed out the guitar as well,

I want to post or [tab]
guest
You may want to rate the tab now too:
select rating
Please do not post tabs as comments. Select "correction" instead!