Oops, an error
Loading. Please wait.

Conjure Me tab

149 views 1 this week
no commentswrite comment
1 2 3 4 5
2 more votes to show rating
add to favorites
×
Save as Personal and add changes to this tab that will be seen only by you. Learn more ›
×
You can save this tab as Personal to edit and correct it or add notes. All changes will be seen only by you. Learn more »
launch autoscroll
font size
0
reset
how to read this tab
guitar tuner
edit
Autoscroll
slow
fast
+/-
esc
set tempo
stop
Author
Difficulty
Unregistered
intermediate
September 2015. Here is tab of McCollum's guitar part from 1992 Afghan Whigs' song 
Conjure Me.
I figured it out by ear, but it should be at least 75% accurate. I also included some 
chords from
bridge. If you want play the rest of Dulli's part remember three chords: Csus2, C/B, Em7 
- and be
sure You've turned on your wah!

intro

e----------------------------------------------------|
B-7b8r7------------------7b8r7b8r7b8r7---------------|
G--------9------7-9---------------------9------7-9-9-|
D-----------10------7----------------------10--------|
A----------------------------------------------------|
E----------------------------------------------------|

short lick during instrumental parts (eg: 0:25, 0:47)

e----------------------------------------------------|
B----------------------------------------------------|
G----------------------------------------------------|
D---10-9-7-------------------------------------------|
A----------10----------------------------------------|
E----------------------------------------------------|

guitar during chorus

1st riff

e-----------7----------------------------------------|
B----7-8-10------------------------------------------|
G-/9-------------------------------------------------|
D----------------------------------------------------|
A----------------------------------------------------|
E----------------------------------------------------|

2nd riff

e------------7--7h8p7----7---------------------------|
B-----7-8-10----------10-----------------------------|
G--/9------------------------------------------------|
D----------------------------------------------------|
A----------------------------------------------------|
E----------------------------------------------------|

3rd riff ("7b" means "bend a bit, but even not a half")

e----------------------------------------------------|
B-----7-8p7------------------------------------------|
G--/9----------------7b-----------9------------------|
D-----------9--9-9-9-----9-7-9------9----------------|
A----------------------------------------------------|
E----------------------------------------------------|

4th riff

e------------7~~10~~---------------------------------|
B-----7-8-10-----------------------------------------|
G--/9------------------------------------------------|
D----------------------------------------------------|
A----------------------------------------------------|
E----------------------------------------------------|

just before (2:30) bridge (A5 E5 A5 G5 F#5 E5)

e----------------------------------------------------|
B----------------------------------------------------|
G-4h5p4h5p4h5p4h5p4h5p4------------------------------|
D----------------------------------------------------|
A----------------------------------------------------|
E----------------------------------------------------|

2:50 - play lick from intro

3:01 - originally Rick used slide to play solo, but I play it without:

e--------------------------------------------------------|
B-/8---------/8---------7b8r7b8r7b8r7--------------------|
G-----9--7-9-----9--7-9---------------9\--/9------/9-----|
D---------------------------------------------9-------9--|
A--------------------------------------------------------|
E--------------------------------------------------------|

e--------------------------------------------------------|
B--------------------------------------------------------|
G--------------------------------------------------------|
D-7h9b10r9b10r9-7----9-----------------------------------|
A-----------------10---7---------------------------------|
E--------------------------------------------------------|


Instead of slide down the neck you can use whammy bar

continue with four chorus riffs, till song fade away.

            
            
Suggest correction
Creating personal tab
Creating personal tab
You can edit any tab online and save it as your Personal.

You can edit, replace or remove any tab part or add personal notes – all changes will be seen only by you.

Personal tabs can be accessed anytime from any device, even offline.
Learn more »
Give kudos to tab author, rate the tab!
1 2 3 4 5
comments
print report bad tab
guest
Wanna post a correction for this tab? Suggest correction