Oops, an error
Loading. Please wait.

Are You Not Wanting Me Yet Tab

138 views 1 this week
no commentswrite comment
1 2 3 4 5
please rate
add to favorites
launch autoscroll
font size
0
reset
how to read this tab
guitar tuner
Autoscroll
slow
fast
+/-
esc
set tempo
stop
Help us to improve Ultimate-Guitar.com Take our survey!
×
Author
Difficulty
novice
 -------------------------------------------------------------------------------
                Are You Not Wanting Me Yet? - The Aftermath
-------------------------------------------------------------------------------
Tabbed by: Frank
Email: phrank496 [at] gmail [dot] com


Intro
D|----------------------------------|
A|--33333-2--------11111-0----------|
E|----------3-3333---------1-1111---|

e|---------------------------------|
B|---------------------------------|
G|--55555-5-4------33333-2---------|
D|--55555-5-4-5555-33333-2-3-3333--| x2
A|--33333-3-2-5555-11111-0-3-3333--|
E|------------3333---------1-1111--|


Verse 1
G|-----------------------------------------|
D|-----------------------------------------|
A|--33333333-22222222-1111111-00000000-----|
E|-----------------------------------------|

e|-----------------------|       e|-----------------|
B|-----------------------|       B|-----------------|
G|----5----7----5----7---|       G|--88-78--88-78---|
D|--7----7----7----7-----| x5    D|-----------------|
A|-----------------------|       A|-----------------|
E|-----------------------|       E|-----------------|


Verse 2 -> same as Verse 1 except for:
e|-----------------------|       e|--------------------------------|
B|-----------------------|       B|--------------------------------|
G|----5----7----5----7---|       G|--88-78--88-78--88-78-10-8-78---|
D|--7----7----7----7-----| x5    D|--------------------------------|
A|-----------------------|       A|--------------------------------|
E|-----------------------|       E|--------------------------------|


Chorus

e|---------------------------------|
B|---------------------------------|
G|--55555-5-4------33333-2---------|
D|--55555-5-4-5555-33333-2-3-3333--| x4
A|--33333-3-2-5555-11111-0-3-3333--|
E|------------3333---------1-1111--|

Post-Chorus
e|----------------------|
B|----------------------|
G|----------------------|
D|----------------------| x3
A|--33333333-55555555---|
E|--11111111-33333333---|

Verse 3 -> same as Verse 2
Chorus
Post-Chorus

Bridge
e|-----------------------------------------|
B|-----------------------------------------|
G|-----------------------------------------|
D|--5-555-555-555--x3--5-555-555-555-55----|
A|--3-333-333-333------3-333-333-333-33----|
E|-----------------------------------------|

Chorus

END

band's myspace: http://www.myspace.com/theaftermathband
===============================================================================
Suggest correction
Give kudos to tab author, rate the tab!
1 2 3 4 5
comments
print report bad tab
guest
You may want to rate the tab now too:
select rating
Wanna post a correction for this tab? Suggest correction