Oops, an error
Loading. Please wait.

Until The World Tab

version 2
version 2

Whole song

60 views 1 this week
no commentswrite comment
1 2 3 4 5
2 more votes to show rating
add to favorites
launch autoscroll
font size
0
reset
how to read this tab
guitar tuner
Autoscroll
slow
fast
+/-
esc
set tempo
stop
Help us to improve Ultimate-Guitar.com Take our survey!
×
Difficulty
novice
Verse:
E                 A
I lose myself to find in me
     E             A
The way it really ought to be
      E             A
It's hard to say I love you
      E             A
It's hard to say I need you


E                    A
If all is well it's hard to tell
    E                   A
It hurts to think of someone else
      E               A
It's hard to say I'll be there
      E              A
It's hard to say I really, really care



Chorus:
            A          B
Until the world won't turn
              E    A
'Till the planets burn
         A         B        C#m
'Til the sun dies I'll be there
           A      B
'Til the heavens come
           E       A
'Til this life is done
            A         B       E
Until the world dies I'll be there

|------------------------------------------------|
|------------------------10-10-10-10-10-10-10----|
|------------------------ 9--9--9--9--9--9--9----|
|----9-9-9-9-9-9-9-9-9-- 9--9--9--9--9--9--9-----|
|----7-7-7-7-7-7-7-7-7---------------------------|
|------------------------------------------------|  (x2)


Verse 2:
E                A
I can't see outside myself
     E                A
How can I live for someone else
      E               A
It's hard to say I'm sorry
      E              A
It's hard to say forgive me
    E                    A
I can't believe you're here with me
E               A
Into the future I can't see
      E             A
It's hard to say forever
       E               A
It's hard to say I'll never ever go


[Chorus]



[Chorus]
|---------0---------------0---------------0---------------0---------------------|
|-----0-----0---0-----0-----0---0-----0-----0---0-----0-----0---0---------------|
|-------------------------------------------------------------------------------|
|---2---2-----2-----4---4-----4-----2---2-----2-----2---2-----2-----------------|
|-0---------------2-------------------------------0-----------------------------|
|---------------------------------0---------------------------------------------|

|---------0----------------0-0-------------0---------------0--------------------|
|-----0-----0---0------0---0-0---0-----0-----0---0-----0-----0---0--------------|
|-------------------------------------------------------------------------------|
|---2---2-----2------4---4-----4-----6---6-----6-----6---6-----6----------------|
|-0----------------2---------------4---------------4----------------------------|
|-------------------------------------------------------------------------------|

|---------0---------------0---------------0---------------0---------------------|
|-----0-----0---0-----0-----0---0-----0-----0---0-----0-----0---0---------------|
|-------------------------------------------------------------------------------|
|---2---2-----2-----4---4-----4-----2---2-----2-----2---2-----2-----------------|
|-0---------------2-------------------------------0-----------------------------|
|---------------------------------0---------------------------------------------|

|---------0----------------0---------------0---------------0--------------------|
|-----0-----0---0------0-----0---0-----0-----0---0-----0-----0---0--------------|
|-------------------------------------------------------------------------------|
|---2---2-----2------4---4-----4-----6---6-----6-----6---6-----6----------------|
|-0----------------2---------------4---------------4----------------------------|
|-------------------------------------------------------------------------------|


[Chorus]

Outro Chords: A  B  E  A     B    E
Suggest correction
Give kudos to tab author, rate the tab!
1 2 3 4 5
comments
print report bad tab
guest
You may want to rate the tab now too:
select rating
Wanna post a correction for this tab? Suggest correction