Oops, an error
Loading. Please wait.

And Their Eulogies Sang Me To Sleep tab

version 1
version 1

Whole song

Interactive

7,320 views 1 this week
no commentswrite comment
1 2 3 4 5
x 5
add to favorites
×
Save as Personal and add changes to this tab that will be seen only by you. Learn more ›
×
You can save this tab as Personal to edit and correct it or add notes. All changes will be seen only by you. Learn more »
launch autoscroll
font size
0
reset
how to read this tab
guitar tuner
edit
Autoscroll
slow
fast
+/-
esc
set tempo
stop
- - - - - - - - - - - - - - - - - - - - - - - - - - - - - - - - - - - - - - -
             -- And Their Eulogies Sang Me To Sleep -- The Agonist
- - - - - - - - - - - - - - - - - - - - - - - - - - - - - - - - - - - - - - -

Tuning: drop D ( D A D G B E )

Modified by : xPinnedDownx (Guitar Pro Tab)
Notes: This is my version of this tab of the other tab up.It's not accurate, but it's acceptable.

Notes 2: You can check my video, this is exactly how I play it.
Website:/// http://www.youtube.com/watch?v=xWV3XzJckJs  ///

Enjoy !!

Riff 1 (0:00)

E ||----------------------------------------------------------| |
B ||----------------------------------------------------------| |
G ||-7-7-7-7-----10-10-10-10-----9-9-9-9-----12-12-12-12------| |
D ||---------x4--------------x4----------x4--------------x2---| |
A ||-5-5-5-5------8--8--8--8-----7-7-7-7-----10-10-10-10------| |
D ||----------------------------------------------------------| |
                                                                |x2
                                                                |
   |----------------------------------------------------------| | 
   |----------------------------------------------------------| |
   |-7-7-7-7-----8-8-8-8-----7-7-7-7--------------------------| |
   |---------x2----------x2----------x2-----------------------| |
   |-5-5-5-5-----6-6-6-6-----5-5-5-5--------------------------| |
   |----------------------------------------------------------| |

       
E ||-------------------------------------------------------------------|
B ||-------------------------------------------------------------------|
G ||-10-10-10-10-----14-14-14-14-----9-9-9-9-----12-12--7-7--8-8--7-7--|
D ||-------------x4--------------x4----------x4------------------------|
A ||--8--8--8--8-----12-12-12-12-----7-7-7-7-----10-10--5-5--6-6--5-5--|
D ||-------------------------------------------------------------------|


Riff 2 (0:24)

E ||--------------------------------------------------------------------|
B ||--------------------------------------------------------------------|
G ||--------------------------------------------------------------------|
D ||-----7p5---5-------------------5-5h7p5---------------------5-7-8-7--|
A ||---------8---8-7---------4-5-7---------8-----7h8p7---7---------8-7--|
D ||-000-------------000-000-----------------888-------8---8-7-5-7------|
     ***             *** ***                 ***       *   

E ||-------------------------------------------------------------|
B ||-------------------------------------------------------------|
G ||-------------------------------------------------------------|
D ||-----7p5---5-------------------5-5h7p5-----------------------|
A ||---------8---8-7---------4-5-7---------8-----7h8p7---7-------|
D ||-000-------------000-000-----------------888-------8---8-7---|
     ***             *** ***                 ***       *

   |----------------------------------------------------------|
   |----------------------------------------------------------|
   |----------------------------------------------------------|
   |----------------------------------------------------------|
   |-----5-0---8-7-5-0-5-7------------------------------------|
   |-555-----5------------------------------------------------|
     ***     *

E ||--------------------------------------------------------------------|
B ||--------------------------------------------------------------------|
G ||--------------------------------------------------------------------|
D ||-----7p5---5-------------------5-5h7p5---------------------5-7-8-7--|
A ||---------8---8-7---------4-5-7---------8-----7h8p7---7---------8-7--|
D ||-000-------------000-000-----------------888-------8---8-7-5-7------|
     ***             *** ***                 ***       *

E ||-------------------------------------------------------------|
B ||-------------------------------------------------------------|
G ||-------------------------------------------------------------|
D ||-----7p5---5-------------------5-5h7p5-----------------------|
A ||---------8---8-7---------4-5-7---------8-----7h8p7---7-------|
D ||-000-------------000-000-----------------888-------8---8-7---|
     ***             *** ***                 ***       *

   |-----------------------------------------------------------|
   |-----------------------------------------------------------|
   |-----7-----------------------------------------------------|
   |-------7-8-------------------------------------------------|
   |-----5-----------------------------------------------------|
   |-555---7-8-------------------------------------------------|
     ***

Riff 3 (0:48)

E ||---------------------------------------------------------------|
B ||---------------------------------------------------------------|
G ||---------------------------------------------------------------|
D ||---------------------------------------------------------------|
A ||---------------------------------9h10p9-------------8h10p8-----|
D ||------------------------10-13-10--------12---9-12-9--------12--|
                            *  *  *              * *  *

E ||------------------------------------------------------------------| |
B ||------------------------------------------------------------------| |
G ||------------------------------------------------------------------| |x2
D ||------------------------------------------------------------------| |
A ||--------12---11h12p11--11---------------9h10p9----------8h10p8----| |
D ||-0-12-15--12---------15--15-12--10-13-10------12--9-12-9------12--| |
     * *  *   *                     *  *  *           * *  *

E ||----------------------------------------------------------|
B ||----------------------------------------------------------|
G ||----------------------------------------------------------|
D ||----------------------------------------------------------|
A ||--------12---11h12p11--11-------------5------------7------|
D ||-0-12-15--12---------15--15-12---0-5-6--6-5---0-7-8--8-7--|
     * *  *   *                      * * *  * *   * * *  * *

E ||------------------------------------------------------------------|
B ||------------------------------------------------------------------|
G ||------------------------------------------------------------------|
D ||------------------------------------------------------------------|
A ||--------12---11h12p11--11---------------9h10p9----------8h10p8----|
D ||-0-12-15--12---------15--15-12--10-13-10------12--9-12-9------12--|
     * *  *   *                     *  *  *           * *  * 

E ||----------------------------------------------------------|
B ||----------------------------------------------------------|
G ||----------------------------------------------------------|
D ||----------------------------------------------------------|
A ||--------12---11h12p11--11-------------5------------7------|
D ||-0-12-15--12---------15--15-12---0-5-6--6-5---0-7-8--8-7--|
     * *  *   *                      * * *  * *   * * *  * *

E ||------------------------------------------------------------------|
B ||------------------------------------------------------------------|
G ||------------------------------------------------------------------|
D ||------------------------------------------------------------------|
A ||--------12---11h12p11--11---------------9h10p9----------8h10p8----|
D ||-0-12-15--12---------15--15-12--10-13-10------12--9-12-9------12--|
     * *  *   *                     *  *  *           * *  *

E ||---------------------------------------------------|
B ||---------------------------------------------------|
G ||---------------------------------------------------|
D ||---------------------------------12-8-8----8-5-5---|
A ||--------12---11h12p11--11--------------------------|
D ||-0-12-15--12---------15--15-12---12-8-8----8-5-5---|
     * *  *   *                

Riff 4 (1:10)

E ||-------------------------------------------------------| |
B ||-------------------------------------------------------| |
G ||-555555---------------------888888-----777777----------| |x3
D ||--------x2--666666--555555---------x2---------x2-------| |
A ||-333333---------------------666666-----555555----------| |
D ||------------666666--555555-----------------------------| |


E ||---------------------------------------------------------|
B ||---------------------------------------------------------|
G ||-555555---------------------888888-----121212121212------|
D ||--------x2--666666--555555---------x2---------------x2---|
A ||-333333---------------------666666-----101010101010------|
D ||------------666666--555555-------------------------------|


Riff 5 (1:33)

E ||-----------------------------------------|
B ||-----------------------------------------|
G ||-----------------------------------------|
D ||-----------------------------------------|
A ||-------1---------------------------------|
D ||-0-1-2---2-1-0-2-1-0-1-0-----------------|


Riff 6 (1:35)

E ||----------------------------------------------------------|
B ||----------------------------------------------------------|
G ||-------777777---------3---3--333333---666666--------------|
D ||---------------------------------------------x2-----------|
A ||-0-3-2-555555---0-2-3-1-0-1--111111---444444--------------|
D ||-0-3-2----------0-2-3---0---------------------------------|
     * * *          * * *   *


E ||----------------------------------------------------------------|
B ||----------------------------------------------------------------|
G ||-------3---3--333333---------222222---------3---3--333333-------|
D ||----------------------------------------------------------------|
A ||-0-2-3-1-0-1--111111---0-3-2-000000---0-2-3-1-0-1--111111-------|
D ||-0-2-3---0-------------0-3-2----------0-2-3---0-----------------|
     * * *   *             * * *          * * *   *

   |-----------------------------------------|
   |-----------------------------------------|
   |-----------------------------------------|
   |-----------------------------------------|
   |-333333-x2--222222-x2--------------------|
   |-333333-----222222-----------------------|


E ||----------------------------------------------------------------------|
B ||----------------------------------------------------------------------|
G ||-------3---3--333333---------222222---------3---3--333333---666666----|
D ||-------------------------------------------------------------------x2-|
A ||-0-2-3-1-0-1--111111---0-3-2-000000---0-2-3-1-0-1--111111---444444----|
D ||-0-2-3---0-------------0-3-2----------0-2-3---0-----------------------|
     * * *   *             * * *          * * *   *

E ||----------------------------------------------------------------|
B ||----------------------------------------------------------------|
G ||-------3---3--333333---------222222---------3---3--333333-------|
D ||----------------------------------------------------------------|
A ||-0-2-3-1-0-1--111111---0-3-2-000000---0-2-3-1-0-1--111111-------|
D ||-0-2-3---0-------------0-3-2----------0-2-3---0-----------------|
     * * *   *             * * *          * * *   *

   |------------------------------------|
   |------------------------------------|
   |------------------------------------|
   |-333333-----222222------------------|
   |-333333-x2--222222-x2---------------|
   |-333333-----222222------------------|


Riff 7 (2:00)

E ||-------------------------------------------------------------------|
B ||-------------------------------------------------------------------|
G ||-------------------------------------------------------------------|
D ||-----3------3---3-----------3------3---3-------3-----3---3---3\----|
A ||-000----000---0---x2----000----000---0-----000---000---0-----------|
D ||-000-3--000-3-0-3-------000-2--000-2-0-2---000-2-000-2-0-2---2\----|
     ***    ***   *         ***    ***   *     ***   ***   *

E ||-------------------------------------------------| |
B ||-------------------------------------------------| |
G ||-------------------------------------------------| |x3
D ||-----3------3---3-----------3------3---3---------| |
A ||-000----000---0---x2----000----000---0---x2------| |
D ||-000-3--000-3-0-3-------000-2--000-2-0-2---------| |
     ***    ***   *         ***    ***   *

Riff 8 (2:28)

E ||-------------------------------------------------------|
B ||-------------------------------------------------------|
G ||-------------------------------------------------------|
D ||-3-----3---------1--3-----2--1--------3-----3----------|
A ||----0------------------------------------0-------------|
D ||-3--0--2---------1--3-----2--1--------3--0--2----------|
        *                                    *

E ||-----------------------------------------------------7--------|
B ||------------------------------------------------------7-------|
G ||-------------------------------------------------------7------|
D ||-1-3----2-1------3---3------1-3------2-1------3---3-----7-----|
A ||-----00------00----0----00-------00-------00----0-------------|
D ||-1-3-00-2-1--00--3-0-2--00--1-3--00--2-1--00--3-0-2-----------|
         **      **    *    **       **       **    *

E ||--------------------------------------------------------------|
B ||--------------------------------------------------------------|
G ||--------------------------------------------------------------|
D ||-----1-3----2-1--3---3------1-3------2-1------3---3-----------|
A ||-00------00--------0----00-------00-------00----0-------------|
D ||-00--1-3-00-2-1--3-0-2--00--1-3--00--2-1--00--3-0-2-----------|
     **      **        *    **       **       **    *

E ||---------------------0----------------------------------------| |
B ||----------------------0---------------------------------------| |
G ||-----------------------0--------------------------------------| |x2
D ||-----1-3----2-1--3------0---1-3------2-1------3---3-----------| |
A ||-00------00--------0-------------00-------00----0-------------| |
D ||-00--1-3-00-2-1--3-0--------1-3--00--2-1--00--3-0-2-----------| |
     **      **        *             **       **    *

E ||-------------------------------------|
B ||-------------------------------------|
G ||-------------------------------------|
D ||-----1-3----2-1--3---3---------------|
A ||-00------00--------0-----------------|
D ||-00--1-3-00-2-1--3-0-2----------end--|
     **      **        *

            
            
Suggest correction
Creating personal tab
Creating personal tab
You can edit any tab online and save it as your Personal.

You can edit, replace or remove any tab part or add personal notes – all changes will be seen only by you.

Personal tabs can be accessed anytime from any device, even offline.
Learn more »
comments
print report bad tab
guest
You may want to rate the tab now too:
select rating
Wanna post a correction for this tab? Suggest correction