Oops, an error
Loading. Please wait.

Business Suits And Combat Boots bass

version 1
version 1

Whole song

Interactive

1,453 views 1 this week
no commentswrite comment
1 2 3 4 5
x 3
add to favorites
×
Save as Personal and add changes to this tab that will be seen only by you. Learn more ›
×
You can save this tab as Personal to edit and correct it or add notes. All changes will be seen only by you. Learn more »
launch autoscroll
font size
0
reset
guitar tuner
edit
Autoscroll
slow
fast
+/-
esc
set tempo
stop
Intro                         
G|-----------|
D|-----------|
A|-----------|
D|-000-0-00x-|
                  x3
G|------------------|----------------|
D|------------------|----------------|
A|------------------|----------8\7/3-|x2
D|-000-0-00-0-00-00-|-000-0-00-------|
                  x3
G|------------------|-------------|
D|------------------|-------------|
A|------------------|-1/3/5/8\7\3-|x2
D|-000-0-00-0-00-00-|-------------|

Verse Intro (All 16th notes)
G|------------------|
D|------------------|
A|------------------|x2
D|-0000000000000000-|

G|---------------------------------------|
D|---------------------------------------|
A|-17-0-0-15-0-0-13-0-0-12-0-0-10-0-12-0-|
D|---------------------------------------|

G|------------------------------------|
D|------------------------------------|
A|-13-0-0-12-0-0-10-0-0-8-0-0-7-0-8-0-|
D|------------------------------------|

G|----------------------|
D|----------------------|
A|----------------------|
D|-0~~~~----0~~~~----0x-|

G|--------------------|------------------|
D|--------------------|------------------|
A|-----10--8-7--787---|-----8--7-5--3530-|
D|-0000--00-0-00---10-|-0000-00-0-00-----|

G|------------------|
D|---------33332222-|
A|-11113333---------|
D|------------------|

Verse (16th notes)
G|------------------|--------------------|
D|------------------|--------------------|
A|-----8--7-5--3530-|-----10--8-7--787---|
D|-0000-00-0-00-----|-0000--00-0-00---10-|

G|------------------|------------------|
D|------------------|------------------|
A|-----8--7-5--3530-|-1111111144444444-|
D|-0000-00-0-00-----|------------------|

G|------------------|--------------------|
D|------------------|--------------------|
A|-----8--7-5--3530-|-----10--8-7--787---|
D|-0000-00-0-00-----|-0000--00-0-00---10-|

G|------------------|----|
D|------------------|----|
A|-----8--7-5--3530-|----|
D|-0000-00-0-00-----|-0x-|

G|------------------|--------------------|
D|------------------|--------------------|
A|-----8--7-5--3530-|-----10--8-7--787---|
D|-0000-00-0-00-----|-0000--00-0-00---10-|

G|------------------|-------------------------|
D|------------------|-------------------------|
A|-----8--7-5--3530-|-111-1-111-1-444-4-444-4-|
D|-0000-00-0-00-----|-------------------------|

Pre-chorus                  x3
G|------------------|----------------|
D|------------------|----------------|
A|------------------|----------8\7/3-|
D|-000-0-00-0-00-00-|-000-0-00-------|
                  x3
G|------------------|------------------|---|
D|------------------|------------------|---|
A|------------------|----------1/3/5/8-|-3~|
D|-000-0-00-0-00-00-|-000-0-00---------|---|

Chorus
G|-----------------|
D|-----------------|
A|-----------------|x4
D|-0-0-0-0-0-0-0-0-|

G|-----------------|------------------|
D|-----------------|------------------|
A|-----------------|---------8-10-8-7-|
D|-8-8-8-8-8-8-8-8-|-8-8-8-8----------|

G|-----------------|-----------------|
D|-----------------|-----------------|
A|-----------------|---------5-5-4-4-|
D|-3-3-3-3-3-3-3-3-|-7-7-7-7---------|
           x3
G|-----------|------------|
D|-----------|------------|
A|-----------|------------|
D|-00x--00x--|-00x--0-0-0-|

G|-----------------|------------------|
D|-----------------|------------------|
A|-----------------|---------8-10-8-7-|
D|-8-8-8-8-8-8-8-8-|-8-8-8-8----------|

G|-----------------|-----------------|
D|-----------------|-----------------|
A|-----------------|---------5-5-4-4-|
D|-3-3-3-3-3-3-3-3-|-7-7-7-7---------|



Breakdown                x2
G|-------------------------|---------------|
D|-------------------------|---------------|
A|-------------------------|-----------3~--|
D|-000000x-000000x-00-00-0-|-8~----3~------|
                         x2
G|-------------------------|-------|
D|-------------------------|-------|
A|-------------------------|-------|
D|-000000x-000000x-00-00-0-|-8~----|

G|------------------|
D|------------------|
A|------------------|
D|-3333333377777777-|

G|-----------------|-------------|
D|-----------------|-------------|
A|-----------------|-------------|x5
D|-000000x-000000x-|-00-00-00-00-|

G|-----------------|------------------|
D|-----------------|------------------|
A|-----------------|------------------|
D|-000000x-000000x-|-3333333377777777-|

G|-----------------|-------------|
D|-----------------|-------------|
A|-----------------|-------------|
D|-000000x-000000x-|-00-00-00-00-|

G|-----------------|------------------|
D|-----------------|------------------|
A|-----------------|------------------|
D|-000000x-000000x-|-8888888877777777-|

G|------------------|------------------|
D|------------------|------------------|
A|------------------|-5555555533333333-|x3
D|-5555555577777777-|------------------|

G|------------------|------------------|
D|------------------|------------------|
A|------------------|------------------|
D|-5555555577777777-|-88888888--7-7-7--|

Pre-chorus 2     x2 
G|-----------------|-------------|----------------|
D|-----------------|-------------|----------------|
A|-----------------|-------------|----------------|
D|-000000x-000000x-|-00-00-00-00-|-0-00-00--0-0-0-|

Chorus - Play the entire first chorus then:
G|-----------------|
D|-----------------|
A|-----------------|x4
D|-0-0-0-0-0-0-0-0-|

G|-----------------|------------------|
D|-----------------|------------------|
A|-----------------|---------8-10-8-7-|
D|-8-8-8-8-8-8-8-8-|-8-8-8-8----------|

G|-----------------|-----------------|
D|-----------------|-----------------|
A|-----------------|---------5-5-4-4-|
D|-3-3-3-3-3-3-3-3-|-7-7-7-7---------|

Outro           x3
G|-----------|------------|
D|-----------|------------|
A|-----------|------------|
D|-00x--00x--|-00x--0-0-0-|

G|-----------------|------------------|
D|-----------------|------------------|
A|-----------------|---------8-10-8-7-|
D|-8-8-8-8-8-8-8-8-|-8-8-8-8----------|

G|-----------------|-----------------|
D|-----------------|-----------------|
A|-----------------|-----------------|
D|-3-3-3-3-3-3-3-3-|-7-7-7-7-7-7-7-7-|

G|-----------------|
D|-----------------|
A|-----------------|x4
D|-0-0-0-0-0-0-0-0-|

G|-----------------|------------------|
D|-----------------|------------------|
A|-----------------|---------8-10-8-7-|
D|-8-8-8-8-8-8-8-8-|-8-8-8-8----------|

G|-----------------|-----------------|
D|-----------------|-----------------|
A|-----------------|-----------------|
D|-3-3-3-3-3-3-3-3-|-7-7-7-7-7-7-7-7-|
            x3
G|-----------|------------|
D|-----------|------------|
A|-----------|------------|
D|-00x--00x--|-00x--0-0-0-|

G|-----------------|------------------|
D|-----------------|------------------|
A|-----------------|---------8-10-8-7-|
D|-8-8-8-8-8-8-8-8-|-8-8-8-8----------|

G|-----------------|-----------------|
D|-----------------|-----------------|
A|-----------------|-----------------|
D|-3-3-3-3-3-3-3-3-|-7-7-7-7-7-7-7-7-|

Piano until the end on the song. 

            
            
Suggest correction
Creating personal tab
Creating personal tab
You can edit any tab online and save it as your Personal.

You can edit, replace or remove any tab part or add personal notes – all changes will be seen only by you.

Personal tabs can be accessed anytime from any device, even offline.
Learn more »
Give kudos to tab author, rate the tab!
1 2 3 4 5
comments
print report bad tab
guest
You may want to rate the tab now too:
select rating
Wanna post a correction for this tab? Suggest correction